Home » M » Microphones »

Microphones - I The Sun Tabs

Artists:  A B C D E F G H I J K L M N O P Q R S T U V W X Y Z # 

I The Sun Tabs

(ver. 1) Click to play this song!
Microphones
[Starts at 11:15, played almost throughout]  
e|---------------------------------------------------------|
B|---------------------------------------------------------|
G|---------------------------------------------------------|
D|--------3--------------3---------1---------------1-------|
A|---3----------3-----3-------3-----------3-----3-----3----|
E|---4----------4-----4-------3-----------3-----3-----3----|
  
[Right after "You Are A Ball of Fire!" ~12:50] 
e|------------------------------------------------------------|
B|------------------------------------------------------------|
G|------------------------------------------------------------|
D|1-1-1--------3-------------3-------1----1------------1------|
A|---------3---------3-----3-----3--------3----3--------------|
E|---------4---------4-----4-----3--------3----3--------------|            
Submit corrections

↑ Back to top | Tablatures and chords for acoustic guitar and electric guitar, ukulele, drums are parodies/interpretations of the original songs. You may use it for private study, scholarship, research or language learning purposes only