Home » M » Microphones »

Microphones - Ill Not Contain You Acoustic Tabs

Artists:  A B C D E F G H I J K L M N O P Q R S T U V W X Y Z # 

Ill Not Contain You Acoustic Tabs

(ver. 1) Click to play this song!
Microphones
Intro:
 
e|--------------0-----0-----|--------0-----0-----0-----|
B|--------3-----3--3--3--3--|--3--3--3--3--3--3--3--3--|
G|--0-----0--0--0--0--0--0--|--0--0--0--0--0--0--0--0--|
D|--0-----0--0--0--0--0--0--|--0--0--0--0--0--0--0--0--|
A|--3-----3--3--3--3--3--3--|--3--3--3--3--3--3--3--3--|
E|--------------------------|--------------------------|
 
e|--0-----0-----0-----0-----|--------0-----0-----0-----|
B|--3--3--3--3--3--3--3--3--|--------3--3--3--3--3--3--|
G|--0--0--0--0--0--0--0--0--|--0-----0--0--0--0--0--0--|
D|--0--0--0--0--0--0--0--0--|--0-----0--0--0--0--0--0--|
A|--3--3--3--3--3--3--3--3--|--3-----3--3--3--3--3--3--|
E|--------------------------|--------------------------|
 
This is repeated until the 1:25 mark, with occasional variations:
 
e|--------------|--------------|--------------|---------------|
B|-----3-----3--|-----3-----3--|-----3-----3--|-----3------3--|
G|-----0-----0--|-----0-----0--|-----0-----0--|-----0------0--|
D|-----2-----0--|-----0-----0--|--4--4--2--0--|--2--2---2--2--|
A|--------------|--2-----2-----|--2-----0-----|--3------3-----|
E|--0-----3-----|--------------|--------------|---------------|
 
"I'll not contain you"
 
e|---------------------------------|-----------------------|
B|---------------------------------|-----------------------|
G|-----------------0---------------|-----------------------|
D|-----0-----5-----4-----4---4--4--|--2--2----2----2----2--|
A|--3-----3-----3-----3------3--3--|--0--0----0----0----0--|
E|---------------------------------|--3--3----3----3----3--|
 
"I wont look for you in my room"
 
e|---------------------------------|--------------------------------|--------------|
B|---------------------------------|--------------------------------|-----3-----3--|
G|------------------------------0--|--------------------------------|-----0-----0--|
D|-----0--0--0-----4-----4---4-----|--2--2-----2-----2-----2-----2--|-----0-----0--|
A|--3-----3--3--3-----3------3-----|--0--0-----0-----0-----0-----0--|--3-----3-----|
E|---------------------------------|--3--3--3-----3-----3-----3-----|--------------|
 
 
                                               "Through lengthy talks I'll not contain you"
e|--------------|--------------|--------------|---------------|---------------|
B|-----3-----3--|-----3-----3--|-----3-----3--|-----3------3--|-----3------3--|
G|-----0-----0--|-----0-----0--|-----0-----0--|-----0------0--|-----0------0--|
D|-----2-----0--|--0--0-----0--|--4--4--2--0--|--2--2---2--2--|--2--2---2--2--|
A|--------------|--------2-----|--2-----0-----|--3------3-----|--3------3-----|
E|--0-----3-----|--------------|--------------|---------------|---------------|
 
                                               "Through climbing arms I'll reach my loft"
e|--------------|--------------|--------------|---------------|---------------|
B|-----3-----3--|-----3-----3--|-----3-----3--|-----3------3--|-----3------3--|
G|-----0-----0--|-----0-----0--|-----0-----0--|-----0------0--|-----0------0--|
D|-----2-----0--|-----0-----0--|--4--4--2--0--|--2--2---2--2--|--2--2---2--2--|
A|--------------|--2-----2-----|--2-----0-----|--3------3-----|--3------3-----|
E|--0-----3-----|--------------|--------------|---------------|---------------|
 
                                               "Through rotting skin I'll leave my coffin"
e|--------------|--------------|--------------|---------------|---------------|
B|-----3-----3--|-----3-----3--|-----3-----3--|-----3------3--|-----3------3--|
G|-----0-----0--|-----0-----0--|-----0-----0--|-----0------0--|-----0------0--|
D|-----2-----0--|-----0-----0--|--4--4--2--0--|--2--2---2--2--|--2--2---2--2--|
A|--------------|--2-----------|--2-----0-----|--3------3-----|--3------3-----|
E|--0-----3-----|--0-----------|--------------|---------------|---------------|
 
 
                                               "Through calloused work I'll grow soft"
e|--------------|--------------|--------------|---------------|---------------|
B|-----3-----3--|-----3-----3--|-----3-----3--|-----3------3--|-----3------3--|
G|-----0-----0--|-----0-----0--|-----0-----0--|-----0------0--|-----0------0--|
D|-----2-----0--|-----0-----0--|--4--4--2--0--|--2--2---2--2--|--2--2---2--2--|
A|--------------|--2-----2-----|--2-----0-----|--3------3-----|--3------3-----|
E|--0-----3-----|--------------|--------------|---------------|---------------|
 
e|--------------|--------------|--------------|---------------|
B|-----3-----3--|-----3-----3--|-----3-----3--|-----3------3--|
G|-----0-----0--|-----0-----0--|-----0-----0--|-----0------0--|
D|-----2-----0--|-----0-----0--|--4--4--2--0--|--2--2------2--|
A|--------------|--2-----2-----|--2-----0-----|--3------------|
E|--0-----3-----|--------------|--------------|---------------|
 
e|--------------|---------|
B|-----3-----3--|-----3---|
G|-----0-----0--|-----0---|
D|-----2-----0--|-----0---|
A|--------------|--2------|
E|--0-----3-----|---------|
 
Repeat the below bars with variations through the following parts:
 
"My eyes narrow towards the light"
 
"A blurry place where we hotly radiate"
 
"And things are never concrete there, and we never die"
 
e|--------------------------------------|-----------0-----0-----------|
B|-----3-----3-----3-----3-----3-----3--|-----------3-----3-----------|
G|-----0-----0-----0-----0-----0-----0--|-----0-----0-----0-----------|
D|-----0-----0-----4-----4-----4-----4--|-----2-----2-----2-----------|
A|--3-----3-----3-----3-----3-----3-----|-----0-----0-----0--0-0--0-0-|
E|--------------------------------------|--3-----3-----3-----3-3--3-3-|
 
e|-----------------------------------|
B|--------------3------3-------------|
G|-----0--------0------0-------0-----|
D|-----2--------2------2--2----2-----|
A|-----0--------0------0--0----0-----|
E|--3--------3------3-------3-----3--|
 
Rest of the song is this, also with variations:
 
e|--------------|--------------|--------------|---------------|
B|-----3-----3--|-----3-----3--|-----3-----3--|-----3------3--|
G|-----0-----0--|-----0-----0--|-----0-----0--|-----0------0--|
D|-----2-----0--|-----0-----0--|--4--4--2--0--|--2--2---2--2--|
A|--------------|--2-----2-----|--2-----0-----|--3------3-----|
E|--0-----3-----|--------------|--------------|---------------|
            
Submit corrections

↑ Back to top | Tablatures and chords for acoustic guitar and electric guitar, ukulele, drums are parodies/interpretations of the original songs. You may use it for private study, scholarship, research or language learning purposes only