Home » M » Michael W Smith »

Michael W Smith - Step By Step Oh God You Are My God Tabs

Artists:  A B C D E F G H I J K L M N O P Q R S T U V W X Y Z # 

Step By Step Oh God You Are My God Tabs

(ver. 1) Click to play this song!
Michael W Smith
 Rating:
3.1/5 (28 votes)
                e|---------------------------------------------------------------------------|
B|---------------------------------------------------------------------------|
G|-------------------0------3---3--3--2-------------------------------0------|
D|----3----------3---2------0--------------3----3------3----------2---2------|
A|3---0---3---3----------3----------------------0---3--0---3---3----------3--|
E|---------------------------------------------------------------------------|
  oh God you are my God and i will ever praise you oh God you are my God and
e|---------------------------------------------------------------------------|
B|---------------------------------------------------------------------------|
G|3---3--3-2-----------------0----2---2---3--2---2--0----------------3----3--|
D|0------------3------3--3--------3---3---3--3---3--3----------------0-------|
A|--------------------0----------------------------------3--3--3-------------|
E|---------------------------------------------------------------------------|
  I will ever praise you i will seek you in the morning and i will learn to
e|---------------------------------------------------------------------------|
B|---------------------------------------------------------------------------|
G|-3----2---0---0--------------------------0--0--------------3--3---3---3---2|
D|-------------------3----3---3-------3----2-----------------0--0------------|
A|--------------1---------0---0---3--------3------3--3---3-------------------|
E|--------------------------------5------------------------------------------|
  walk in your ways and step by step you lead me and I will follow you all of
e|---------------------------------------------------------------------------|
B|---------------------------------------------------------------------------|
G|-0-------------------------------------------------------------------------|
D|----3----------------------------------------------------------------------|
A|----0----------------------------------------------------------------------|
E|---------------------------------------------------------------------------|
  my days            
Submit corrections

↑ Back to top | Tablatures and chords for acoustic guitar and electric guitar, ukulele, drums are parodies/interpretations of the original songs. You may use it for private study, scholarship, research or language learning purposes only