» » »

Michael W Smith - Great Is The Lord Tabs

Artists:  A B C D E F G H I J K L M N O P Q R S T U V W X Y Z # 

Great Is The Lord Tabs

(ver. 1) Click to play this song!
Michael W Smith
 Rating:
3/5 (30 votes)

 Great Is The Lord lessons Tabs too difficult? Try these video lessons and learn fast
 
                e|-----------------------------------------------------------------------------|
B|-----------------------------------------------------------------------------|
G|---------------------------0-------------------------------------------------|
D|--2----0--2----3--3---2-0--0--3---2----2--0-----3--2----0-----------------2--|
A|--3------------3--3-----2---------3----3------3---------2---3---2----3----3--|
E|------------------------------------------------------------5----------------|
  great is the Lord He is holy and just by His power we trust in His love great
e|---------------------------------------------------------------------------|
B|---------------------------------------------------------------------------|
G|-----------------------0---------------------------------------------------|
D|-0--2----3---3--2--0---0----3----2---2--0-----3---2----0-------------------|
A|---------3---3-----2-------------3---3------3----------2---3---2--3--------|
E|-----------------------------------------------------------5---------------|
  is the Lord He is faithful and true by His mercy he proves He is love
e|---------------------------------------------------------------------------|
B|-------------------------------------------------------------------------0-|
G|---------3----3---2----3---3---2--0------0------3----3---2----3---2---0--0-|
D|---------0----0---3----0---0---3--2---3--2------0----0---3----0---3---0----|
A|--------------------------------------5----3-------------------------------|
E|---------------------------------------------------------------------------|
chorus:1 great is  the Lord and worthy of glory great is  the Lord and worthy
chorus:2 great are you Lord and worthy of glory great are you Lord and worthy
e|--------------------------------------------------------------0-----------------|
B|3----1---------------------------------3--------0----0----0-------0----1-----3--|
G|0----0------3----3---2----3---3----2---0---2----0----0----1---2--------2--------|
D|------------0----0---3----0---0----4-----------------------------------------3--|
A|--------------------------------------------------------------------------------|
E|--------------------------------------------------------------------------------|
  of praise great is  the Lord now lift up your voice now lift up your voice great
  of praise great are you Lord  I  lift up  my  voice  I  lift up  my  voice great
e|---------------------------------------------------------------------------|
B|-1---0----1----------------------------------------------------------------|
G|---------------------------------------------------------------------------|
D|-3---3----2----------------------------------------------------------------|
A|---------------------------------------------------------------------------|
E|---------------------------------------------------------------------------|
  is  the Lord
  are you Lord 
            
Submit corrections


        Great Is The Lord lessons Hard to play? Try these video lessons and learn fast Great Is The Lord lessons
        
↑ Back to top | Tablatures and chords for acoustic guitar and electric guitar, ukulele, drums are parodies/interpretations of the original songs. You may use it for private study, scholarship, research or language learning purposes only