Home » M » Michael Bolton »

Michael Bolton - Said I Loved You But I Lied Tabs

Artists:  A B C D E F G H I J K L M N O P Q R S T U V W X Y Z # 

Said I Loved You But I Lied Tabs

(ver. 1) Click to play this song!
Michael Bolton
[Solo]

      D#m      B      C#                F#        B        A#
e|---------------------------------------------------------------------------|
B|-----7---6/7-7--7\6-6---6-6-6/7--9--9/11\------------6/7-6--4/6-6--4/6-----|
G|--3----------------------------------------6--6/8\4------------------------|
D|---------------------------------------------------------------------------|
A|---------------------------------------------------------------------------|
E|---------------------------------------------------------------------------|

  D#m        B               C#                     F#     B          A#
e|-------6-9-11---------------------------------6-7-9-----------7-9p7\6------|
B|-7----7-----11----7-9-9/11-9--7--6-7-4-6-----7-----------------------------|
G|-----8-------11-8------------------------6--6--------6-6/8\4---------------|
D|----8----------------------------------------------------------------------|
A|---------------------------------------------------------------------------|
E|---------------------------------------------------------------------------|
            
Submit corrections

↑ Back to top | Tablatures and chords for acoustic guitar and electric guitar, ukulele, drums are parodies/interpretations of the original songs. You may use it for private study, scholarship, research or language learning purposes only