Home » M » Miami Horror »

Miami Horror - Wild Motion Tabs

Artists:  A B C D E F G H I J K L M N O P Q R S T U V W X Y Z # 

Wild Motion Tabs

(ver. 1) Click to play this song!
Miami Horror
 Rating:
3.3/5 (29 votes)
                Intro:
e|-----------------|
B|--------11-9-----|
G|--10-10----------|
D|-----------------| 
A|-----------------|
E|-----------------|

Verse:
e|-----------------------|
B|--111111-999-777-5-4---|
G|--101010-888-666-4-5---|
D|-----------------------| 
A|-----------------------|
E|-----------------------|

e|---------------------------------|
B|---------------------------------|
G|11-11-11---8-8--6--6--3--3/5-----|
D|-x--x--x---x-x--x--x--x--x-x-----| 
A|-9--9--9---6-6--4--4--1--1/3-----|
E|---------------------------------|

Pre-Chorus
e|-----------------|
B|--------11-9-----|
G|--10-10----------|
D|-----------------|
A|-----------------|
E|-----------------|

Chorus:
e|----|
B|-11-|
G|-10-|  (Guitar 1 just strums this repeatedly throughout the chorus)
D|-11-|
A|--9-|
E|----|

 "High again..."
e|-11p9-------------|
B|------11--9--7-7--|
G|------------------|
D|------------------| 
A|------------------|
E|------------------|

Post-Chorus
e|-------------------------------------------------|
B|-11--11----9-9-9-----11--11----12----12--12--11--|
G|-10--10----101010----10--10----11----11--11--10--|
D|-------------------------------------------------|
A|-------------------------------------------------|
E|-------------------------------------------------|            
Submit corrections

↑ Back to top | Tablatures and chords for acoustic guitar and electric guitar, ukulele, drums are parodies/interpretations of the original songs. You may use it for private study, scholarship, research or language learning purposes only