Home » M » Miami Horror »

Miami Horror - Summersun Tabs

Artists:  A B C D E F G H I J K L M N O P Q R S T U V W X Y Z # 

Summersun Tabs

(ver. 1) Click to play this song!
Miami Horror
 Rating:
3.1/5 (23 votes)
                 Verse and Chorus:
 Guitar 1:
e|----------------------------------|
B|----------------------------------|
G|--12--------10-12-15-14----12-12--|
D|------10-12-----------------------|
A|----------------------------------|
E|----------------------------------|

 Guitar 2:
   Gm        Bb       C
e|-3--3---3--6-6-6-6--3--3--|
B|-3--3---3--6-6-6-6--5--5--|
G|-3--3---3--7-7-7-7--5--5--|
D|--------------------------|
A|--------------------------|
E|--------------------------|


 Break:
   Bb       Am       Bb        Gm    
e|-66666666-55555555-66666666-33333333-|
B|-66666666-55555555-66666666-33333333-|
G|-77777777-55555555-77777777-33333333-|
D|-88888888-77777777-88888888-55555555-| (x4)
A|-88888888-77777777-88888888-55555555-|
E|-66666666-55555555-66666666-33333333-|


Bridge:
  Em                      Am
e|-7---------------------------------------------|
B|-8-6--6--6--6--6--6--6--5--5--5--5--5--5--5----|
G|-9--9--9-----9--9--9-----5--5--5--5--5--7------|
D|-9---9--9--9--9--9--9--7--7--7--7--7--7--7-----| (x2)
A|-7---------------------------------------------|
E|-----------------------------------------------|
  Em             Eb           Dm
e|-7-------------6-------------5-----------------|
B|-8--8-------8--8--8-------8--6-6---6---6---6---|
G|-9----9---9----8----8---8----7--7-7-7-7-7-7-7--|
D|-9------9------8------8------7---7----7---7---7| (x2)
A|-7-------------6-------------5-----------------|
E|-----------------------------------------------|


            
Submit corrections

↑ Back to top | Tablatures and chords for acoustic guitar and electric guitar, ukulele, drums are parodies/interpretations of the original songs. You may use it for private study, scholarship, research or language learning purposes only