Home » M » Miami Horror »

Miami Horror - Sometimes Tabs

Artists:  A B C D E F G H I J K L M N O P Q R S T U V W X Y Z # 

Sometimes Tabs

(ver. 1) Click to play this song!
Miami Horror
 Rating:
3.2/5 (26 votes)
                Intro and Verse:
Guitar 1:

e|----------------------------------------------|
B|--------------8-8-8-8--11--11--11--11-8-8-8-8-|
G|---8--8--8--8---------------------------------|
D|-10-10-10-10-8-8-8-8-10--10--10--10--8-8-8-8--| 
A|----------------------------------------------|
E|----------------------------------------------|

 Guitar 2:
e|-------------|
B|-------------|
G|-------------|
D|-3--1--0-----| 
A|----------1--|
E|-------------|

Break:
e|-----------------------------|
B|-----------------------------|
G|-12--10--7~----5--8-7-3-5-0--|
D|-----------------------------|
A|-----------------------------|
E|-----------------------------|


Chorus:

(at the end)
e|----------------------------------------|
B|----------------------------------------|
G|-5--7--8--7--10-8-12-10-14-12-15-14-17b-|
D|----------------------------------------|
A|----------------------------------------|
E|----------------------------------------|

Outro:

e|---------------------------------------|
B|---------------------------------------|
G|----7-8-7----7-8-7---7-8-7--5-3-5-7----|
D|-8---------8-------8----------------5--|
A|---------------------------------------|
E|---------------------------------------|            
Submit corrections

↑ Back to top | Tablatures and chords for acoustic guitar and electric guitar, ukulele, drums are parodies/interpretations of the original songs. You may use it for private study, scholarship, research or language learning purposes only