Home » M » Miami Horror »

Miami Horror - Out Of Sight Tabs

Artists:  A B C D E F G H I J K L M N O P Q R S T U V W X Y Z # 

Out Of Sight Tabs

(ver. 1) Click to play this song!
Miami Horror
 Rating:
3.6/5 (21 vote)
                Intro:

  Guitar 1:
e|--5--x--5---7--5---55---|
B|--5--x--5---5--5---77---|
G|--5--x--5---5--5---77---| (Repeat x8)
D|------------------------|
A|------------------------|
E|------------------------|

e|--5-7-5----101010\---5-7-5--|
B|--5-5-5----101010\---5-5-5--|
G|--5-5-5----111111\---5-5-5--|
D|----------------------------| (Repeat x2)
A|----------------------------|
E|----------------------------|

Verse:

 Guitar 1:
e|--5-7-5----101010\---5-7-5--|
B|--5-5-5----101010\---5-5-5--|
G|--5-5-5----111111\---5-5-5--|
D|----------------------------| (Repeat x2)
A|----------------------------|
E|----------------------------|

  Hide from my desires...
 Guitar 1:
    D        A
e|--5--------5---------------10---10--10--10---10---10--10--10------------|
B|--7--------5---------------10-10--10--10--10-10-10--10--10--10----------|
G|--7--------6---------------11----------------11-------------------------|
D|--7--------7------------------------------------------------------------|
A|--5--------7------------------------------------------------------------|
E|-----------5------------------------------------------------------------|

 Guitar 2:
e|-------------------5-7-5---------------------101010\-----------101010\--|
B|-------------------5-5-5---------------------101010\-----------101010\--|
G|-------------------5-5-5---------------------111111\-----------111111\--|
D|------------------------------------------------------------------------|
A|------------------------------------------------------------------------|
E|------------------------------------------------------------------------|


Chorus:

Guitar 1:
e|--5-7-8-5--------5-7-8-7-------|
B|--5-5-5-5--(x2)--7-8-8-8--(x2)-|
G|--5-5-5-5--------7-7-7-7-------|
D|-------------------------------|
A|-------------------------------|
E|-------------------------------|


Guitar 2:
e|----------------------------------------------------------------------|
B|----------------------------------------------------------------------|
G|-9--11--12--11----9--11--12--11----12--14--15--14----12--14--15--14---|
D|----------------------------------------------------------------------|
A|----------------------------------------------------------------------|
E|----------------------------------------------------------------------|
pm....................................................................            
Submit corrections

↑ Back to top | Tablatures and chords for acoustic guitar and electric guitar, ukulele, drums are parodies/interpretations of the original songs. You may use it for private study, scholarship, research or language learning purposes only