Home » M » Miami Horror »

Miami Horror - Maybe I Need You Tabs

Artists:  A B C D E F G H I J K L M N O P Q R S T U V W X Y Z # 

Maybe I Need You Tabs

(ver. 1) Click to play this song!
Miami Horror
Main Riff:

Guitar 1:   
e|--------------------------------------------|
B|--------------------------------------------|
G|--------------------------------------------|
D|-4-4-4--4-4--4--4-4h6--4-4--6--6--6-8-6-4---|
A|--------------------------------------------|
E|--------------------------------------------|

Guitar 2: 
e|-------------------------------|
B|-------------------------------|
G|--------6--6-6--x--6--6----6---|
D|--4--6-----4-4--x--4--4----4---|
A|-------------------------------|
E|-------------------------------|


Maybe I need you...

e|--999999999--|
B|--999999999--|
G|--999999999--|
D|-------------|
A|-------------|
E|-------------|


Outro:

e|-------------------------------|
B|-------------------------------|
G|-------------------------------|
D|--11--13-13---11--13--13131111-|
A|-------------------------------|
E|-------------------------------|

(Fade out...)

e|-------------------------------|
B|-11-11-9-777-----4-4-5-666-----|
G|-10-10-8-666-----5-5-5-555-----|
D|-------------------------------|
A|-------------------------------|
E|-------------------------------|


            
Submit corrections

↑ Back to top | Tablatures and chords for acoustic guitar and electric guitar, ukulele, drums are parodies/interpretations of the original songs. You may use it for private study, scholarship, research or language learning purposes only