Home » M » Miami Horror »

Miami Horror - Holidays Tabs

Artists:  A B C D E F G H I J K L M N O P Q R S T U V W X Y Z # 

Holidays Tabs

(ver. 1) Click to play this song!
Miami Horror
 Rating:
3.1/5 (26 votes)
                Intro:
Guitar 1:
e|-------------|
B|-11---1010---|
G|--x---x-x----|
D|--8---8-8----|
A|--x---x-x----|
E|-------------|


Verse:
Guitar 2:
e|---------------------------------------------|
B|---------------------------------------------|
G|------10--10--10--10--10--10--10---14141412--|
D|-10h12--12--12--12--12--12--12--12-----------|
A|---------------------------------------------|
E|---------------------------------------------|



   Dm                 Am
   I didn't know when to expect you
   Dm               Am
   Or even if you'd come at all
   Dm                 Am
   And now that I try to possess you
   Dm                Am
   I'm still the one you choose to call


Chorus:

Guitar 1:
e|-------------|
B|-11---1010---|
G|--x---x-x----|
D|--8---8-8----|
A|--x---x-x----|
E|-------------|



Guitar 2 
e|---------------------------------------------|
B|---------------------------------------------|
G|------10--10--10--10--10--10--10---14141412--|
D|-10h12--12--12--12--12--12--12--12-----------|
A|---------------------------------------------|
E|---------------------------------------------|
            
Submit corrections

↑ Back to top | Tablatures and chords for acoustic guitar and electric guitar, ukulele, drums are parodies/interpretations of the original songs. You may use it for private study, scholarship, research or language learning purposes only