» » »

Mia - Jimmy Tabs

Artists:  A B C D E F G H I J K L M N O P Q R S T U V W X Y Z # 

Jimmy Tabs

(ver. 1) Click to play this song!
Mia
 Rating:
3.7/5 (6 votes)

 Jimmy lessons Tabs too difficult? Try these video lessons and learn fast
 
                MIA - Jimmy
Standard tuning




Rhythm is just F#m, E repeated throughout the song.



GO JIMMY... Badger!!



e--|------------------------------------|------------------------------------|--
B--|------9--10--12p10p9--10p9----------|------9--10--12p10p9--10p9----------|--
G--|--11------------------------11--11--|--11------------------------11--11--|--
D--|------------------------------------|------------------------------------|--
A--|------------------------------------|------------------------------------|--
E--|------------------------------------|------------------------------------|--

e--|----------------------------------------------|-----------------------------|--
B--|------9--10--12p10p9--10p9------------9-------|-----------------------------|--
G--|--11------------------------11--9h11-----9s6--|-----6--7--9p7p6--7p6--------|--
D--|----------------------------------------------|--9--------------------9--9--|--
A--|----------------------------------------------|-----------------------------|--
E--|----------------------------------------------|-----------------------------|--

e--|-----------------------------|------------------------------------------|--
B--|-----------------------------|------------------------------------------|--
G--|-----6--7--9p7p6--7p6--------|-----6--7--9p7p6--7p6-----------6---------|--
D--|--9--------------------9--9--|--9--------------------9--7--9-----9------|--
A--|-----------------------------|--------------------------------------7~--|--
E--|-----------------------------|------------------------------------------|--
            
Submit corrections


        Jimmy lessons Hard to play? Try these video lessons and learn fast Jimmy lessons
        
↑ Back to top | Tablatures and chords for acoustic guitar and electric guitar, ukulele, drums are parodies/interpretations of the original songs. You may use it for private study, scholarship, research or language learning purposes only