» » »

Mgmt - It's Working Tabs

Artists:  A B C D E F G H I J K L M N O P Q R S T U V W X Y Z # 

It's Working Tabs

(ver. 1) Click to play this song!
Mgmt
 Rating:
4/5 (4 votes)

 It's Working lessons Tabs too difficult? Try these video lessons and learn fast
 
                Here ya go, definitely right:

First, here are the chords used in this tab.

    F#m   G    D    C#m    Bm    B    Em    Em5   E    A#m    G#m
e|---2----3----------4------2----7-----0-----7----0-----6------4-------------|
B|---2----3----7-----5------3----7-----0-----8----0-----6------4-------------|
G|---2----4----7-----6------4----8-----0-----9----1-----6------4-------------|
D|---4----5----7-----6------4----9-----2-----9----2-----8------6-------------|
A|---4----5----5-----4------2----9-----2-----7----2-----8------6-------------|
E|---2----3----------------------7-----0-----0----0-----6------4-------------|

Intro:

Play 4 times...
e|---------------------------------------------------------------------------|
B|-------------------------3-------------------------------------------------|
G|---------------------0---2-------------------------------------------------|
D|-----------0--2--3-------0-------------------------------------------------|
A|--0--2--3------------------------------------------------------------------|
E|---------------------------------------------------------------------------|


F#m        G
Here, you focus
D     C#m  Bm       G
 so I can  see your faces
    F#m       B
the eyes are wrong

Riff 2:
Then play this with "How will I know..."

e|---------------------------------------------------------------------------|
B|---------------------------------------------------------------------------|
G|---2---0-------------------------------------------------------------------|
D|------------4--4----2---4---4----------------------------------------------|
A|--------------------------------2------------------------------------------|
E|---------------------------------------------------------------------------|
    "How will I  know if it's working..."
    A
    right?

F#m       G
light confuses
D      C#m  Bm       G
 the tiny   isles of bruises
    F#m     B
the mangled lines

(Riff 2)
I see the signs of aging

D                D
But if I try to feel at all 
  Em               Em
I am deceived my mind's affected
D
it's empty now
D
as I lay down
Em
I feel alright
Em
my heart is racing

F#m      G
Turn the noise on
D         C#m   Bm      G
 I'd like to   feed my poison
  F#m     B
assembly lines

(Riff 2)
carry a velvet warning

F#m    G
to the yard
D          C#m   Bm       G
 it's just like striking matches
    F#m     B
the polish lies


This part is tricky to tab out, but lyrics in ("...")
are the background lyrics, to which the guitar goes along with.  
The only lead lyrics I wrote chord changes to are "Love is only 
in your mind"  and  "And not your heart."  It looks complicated 
but it's easy - listen, play along and figure it out.

But it's working in your blood
 B  A#m   G#m        E
(Working  in   your blood)

Which you know is not the same as love
 Em          F#m
(Same   as   love)
G                    (D)
Love is only in your mind
 D  C#m   Bm         G
(Working  in  your  mind)
              A
And not your heart

F#m        G
Now, it's working

Bridge:
Em5   Em    D    G    F#m    A



But it's working in your blood
 B  A#m   G#m        E
(Working  in   your blood)

Which you know is not the same as love
 Em          F#m
(Same   as   love)
G                    (D)
Love is only in your mind
 D  C#m   Bm         G
(Working  in  your  mind)
              A
And not your heart


Just keep repeating and fade out...
            
Submit corrections


        It's Working lessons Hard to play? Try these video lessons and learn fast It's Working lessons
        
↑ Back to top | Tablatures and chords for acoustic guitar and electric guitar, ukulele, drums are parodies/interpretations of the original songs. You may use it for private study, scholarship, research or language learning purposes only