» » »

Mgmt - Indie Rokkers Tabs

Artists:  A B C D E F G H I J K L M N O P Q R S T U V W X Y Z # 

Indie Rokkers Tabs

(ver. 1) Click to play this song!
Mgmt
 Rating:
4.4/5 (7 votes)

 Indie Rokkers lessons Tabs too difficult? Try these video lessons and learn fast
 
                MGMT

Palm muted powerchords throughout most of song.

Verse 

C#m                           A                    E  F#m  G#m A
I like the line between your belly and your thighs

    C#m                    A                    E  F#m  G#m A
the smell of your hair the sparkle in your eyes

    C#m                      A
the smoke in your breath the breathing hard and heavy

    E       	F#m      G#m           A
the back of your neck the shine on your Chevy

    C#m	                   A                         E  F#m  G#m A  
the moon was so big when I drove it to the levy, girl

Chorus

A             G#m             E (let another guitar ring out full chord)
      I found blood and I saw stars

E				A
all in the backseat of your car

      G#m              C#m
and I told you it was love

    B	                      
but you don't wanna know the truth

A     G#m             E
I’m a young man in my prime

        Ebm                    
with my heart still filled with fear

A      G#m              C#m      
and it goes on bleedin'

Verse                        volume swell 
e|----------------------------(12)-| <--- e string
B|---------9--12-----------9---12--|     second time
G|----9---------------9------------|
D|-11---11---------11---11---------| 
A|---------------------------------| 
E|---------------------------------| 

e|---------------------------------------------|
B|-----------------------------------------9-9-| <--- B string
G|-13-13-16-16-13-13-16-16-11-11-9-9-11-11-9-9-|     second time
D|---------------------------------------------|
A|---------------------------------------------|
E|---------------------------------------------|

Chorus

Lead
e|-------------------------------------------|
B|-------------------------------------------|
G|-13-13-13-11-11-11-9-9-9-8-8-8-6-6-4-2-4/6-|     
D|-------------------------------------------|
A|-------------------------------------------|
E|-------------------------------------------|


Bridge 

A  G#m  E

e|-0-//--|
B|-0-//--|
G|-1-//--| strum until the end
D|-2-//--| 
A|-2-//--| 
E|-------| 

Chorus

A             G#m             E (let another guitar ring out full chord)
      I found blood and I saw stars

E				A
all in the backseat of your car

      G#m              C#m
and I told you it was love

    B	                      
but you don't wanna know the truth

A     G#m             E
I’m a young man in my prime

        Ebm                    
with my heart still filled with fear

A          G#m            E
    and it goes all clear

A          G#m            E
    and it goes all clear

A          G#m            E
    and it goes all clear
            
Submit corrections


        Indie Rokkers lessons Hard to play? Try these video lessons and learn fast Indie Rokkers lessons
        
↑ Back to top | Tablatures and chords for acoustic guitar and electric guitar, ukulele, drums are parodies/interpretations of the original songs. You may use it for private study, scholarship, research or language learning purposes only