Home » M » Mewithoutyou »

Mewithoutyou - Birnam Wood Tabs

Artists:  A B C D E F G H I J K L M N O P Q R S T U V W X Y Z # 

Birnam Wood Tabs

(ver. 1) Click to play this song!
Mewithoutyou
 Rating:
4.3/5 (29 votes)
                [Intro] (0:00 - 0:13)
 
Bm
e|---------------------------------------------------------------------------|
B|--12/--------------------------12/-----------------------------------------|
G|------11--9-11-9-11----------------11--9-11-9-11---------------------------|
D|--------------------9----------------------------9-------------------------|
A|---------------------------------------------------------------------------|
E|---------------------------------------------------------------------------|
 
D             A
e|---------------------------------------------------------------------------|
B|---------------------------------------------------------------------------|
G|--11-11p9---9-11-9~-------7--7p6-----7p6-----------------------------------|
D|----------9-----------7h9--------9~------7h9~------------------------------|
A|---------------------------------------------------------------------------|
E|---------------------------------------------------------------------------|
 
 
[Verse 1] (0:13 - 0:51)
 
Bm
All dark effects I'd long withstood
Upon my room advanced
D
The moving shade of Birnam Wood
A
Disguised by broken branch
 
 
Bm
e|---------------------------------------------------------------------------|
B|--12/--------------------------12/-----------------------------------------|
G|------11--9-11-9-11----------------11--9-11-9-11---------------------------|
D|--------------------9----------------------------9-------------------------|
A|---------------------------------------------------------------------------|
E|---------------------------------------------------------------------------|
 
D             A
e|---------------------------------------------------------------------------|
B|---------------------------------------------------------------------------|
G|--11-11p9---9-11-9~-------7--7p6-----7p6-----------------------------------|
D|----------9-----------7h9--------9~------7h9~------------------------------|
A|---------------------------------------------------------------------------|
E|---------------------------------------------------------------------------|
 
Bm
I struck firm the hollow of your thigh
                           D
Withheld my name, yet from determined hold I could not fly;
A
Though every tendon came undone
 
[Chorus] (0:51 - 1:17)
 
D                     F#m
Would you take a bound-up Isaac's place?
                           A
Are you a God, and shall your grace
Grow weary of your saints?
D                   F#m
Or prefer the father's dreadful fate?
                           A
Are you a God, and shall your grace
Grow weary of your saints?
D  F#m A
(Though every tendon came undone
Safe in the arms of the kingdom come)
 
 
[Main Riff] (1:17 - 1:30)
 
Bm
e|---------------------------------------------------------------------------|
B|--12/--------------------------12/-----------------------------------------|
G|------11--9-11-9-11----------------11--9-11-9-11---------------------------|
D|--------------------9----------------------------9-------------------------|
A|---------------------------------------------------------------------------|
E|---------------------------------------------------------------------------|
 
D             A
e|---------------------------------------------------------------------------|
B|---------------------------------------------------------------------------|
G|--11-11p9---9-11-9~-------7--7p6-----7p6-----------------------------------|
D|----------9-----------7h9--------9~------7h9~------------------------------|
A|---------------------------------------------------------------------------|
E|---------------------------------------------------------------------------|
 
[Verse 2] (1:31 - 1:53)
 
Bm
Floodwater filled your formless birth
A column cloud descends
D
Your of sorrow must not be measured by his worth
A
For then it hath no end
Bm
Yet may my heart in tune be found
In four-shape notes from underground
D
And can we not call it a nervous breakdown,
A
My nervous system breaking down?
 
 
[Solo] (1:54 - 2:03)
 
e|-10-10-10-10---9-0-----9-10-9------------------0---------------------------|
B|-------------7-----7-8--------10-8-0-7-8-7---8---0-------------------------|
G|-------------------------------------------9-------7~----------------------|
D|---------------------------------------------------------------------------|
A|---------------------------------------------------------------------------|
E|---------------------------------------------------------------------------|
 
 
[Chorus] (2:04 - 2:40)
 
D                      F#m
Would you take a bound-up Isaac's place?
                          A
Are you a God, and shall your grace
Grow weary of your saints?
D                   F#m
Steady is a knife held sure by faith
                           A
Are you a God, and shall your grace
Grow weary of your saints?
D
Riding in a westbound railcar
F#m
They'll dump you in the Highgate Graveyard
A
They'll dump you in the Highgate Graveyard
D    F#m
(Poison in the teacup graveyard
A
alpha radiation graveyard)
 
 
[Outro] (2:41 - 3:02)
 
e|---------------------------------------------------------------------------|
B|---------------------------------------------------------------------------|
G|-0~---0------0~---0----0-0---0----2~---0-0---0---2~------------------------|
D|----2-----------2-----------2--------------2-------------------------------|
A|---------------------------------------------------------------------------|
E|--------2~----------2~----------2--------------2---------------------------|
 
(3:03 - 3:43)
e|---------------------------------------------------------------------------|
B|-0~---0----2~--------------------------------------------------------------|
G|----2----------------------------------------------------------------------|    x8
D|---------------------------------------------------------------------------|
A|---------------------------------------------------------------------------|
E|---------2-----------------------------------------------------------------|
 
(3:43 - End)
e|---------------------------------------------------------------------------|
B|---------------------------------------------------------------------------|
G|---------------------------------------------------------------------------|    x2
D|------4---4---4---4---------------------4---4---4---4----------------------|
A|----5---5---5---5---4--4-4-4-0--------5---5---5---5---4--4-4-4-0-----------|
E|-------------------------------2~--------------------------------2-0~------|
            
Submit corrections

↑ Back to top | Tablatures and chords for acoustic guitar and electric guitar, ukulele, drums are parodies/interpretations of the original songs. You may use it for private study, scholarship, research or language learning purposes only