Home » M » Metro Station »

Metro Station - Dear Hannah Tabs

Artists:  A B C D E F G H I J K L M N O P Q R S T U V W X Y Z # 

Dear Hannah Tabs

(ver. 1) Click to play this song!
Metro Station
Band: Metro Station


This is the song Dear Hannah by the band Metro Station.  Metro Station is Mason Musso, 
Cyrus, Blake Healy, and Anthony Improgo.  This tab is dedicated to Talia.. My favorite 
of a friend.  You Rock!!!!!

Standard Tuning (EADGBe)

Intro
e-----------------------------------|
B--8-8-8-8---------8-8-8-8-8-8-8-8--|
G----------9-9-9-9------------------|
D-----------------------------------|
A-----------------------------------|
E-----------------------------------|

Verse  (i just added this in according to the bass... it sounds pretty cool)
e-----------------------------------------------|
B-----------------------------------------------|
G-----------------------------------------------|
D--9--9--9----5--5--5----12--12--12----9--9--9--|
A--7--7--7----3--3--3----10--10--10----7--7--7--|
E-----------------------------------------------|

Prechorus
e---------------------------|
B--12----13----15----13-----|
G-----12----12----12----12--|
D---------------------------|
A---------------------------|
E---------------------------|

Chorus
e-----------------------------------------------------| repeat as neccasary
B--13---------------------------------12-12-13-13-13--|
G-----12-12-12-12-12---12-12-12-12-12-----------------|
D-----------------------------------------------------|
A-----------------------------------------------------|
E-----------------------------------------------------|

Verse 2
e-----------------------------------| x2
B--5---5-6-5---5-6-5---5-6-5---5-6--|
G----5-------5-------5-------5------|
D-----------------------------------|
A-----------------------------------|
E-----------------------------------|

Repeat Prechorus

Repeat Chorus

Bridge
e----------------------------------------------------|
B-------------8----------------------8-5--5-3-5-3-5--|
G--5--5-4-5-4---5--5-4-5--5--5-4-5-4-----------------|
D----------------------------------------------------|
A----------------------------------------------------|
E----------------------------------------------------|

Repeat chorus twice

Outro (is the same as the chorus with a minor change at the last part)

e-----------------------------------------------------|
B--13-------------------------------------------------|
G-----12-12-12-12-12---12-12-12-12-12-9-9-9-9-9-------|
D-----------------------------------------------------|
A-----------------------------------------------------|
E-----------------------------------------------------|

Thats pretty much it.  Pretty much the whole song is Synth and keyboard so you've really 
to listen.  Have fun : )
            
Submit corrections

↑ Back to top | Tablatures and chords for acoustic guitar and electric guitar, ukulele, drums are parodies/interpretations of the original songs. You may use it for private study, scholarship, research or language learning purposes only