Home » M » Metro Station »

Metro Station - California Tabs

Artists:  A B C D E F G H I J K L M N O P Q R S T U V W X Y Z # 

California Tabs

(ver. 1) Click to play this song!
Metro Station
Band: Metro Station


This is the song California by the band Metro Station.  Metro Station is Mason Musso, 
Cyrus, Blake Healy, and Anthony Improgo.

Standard Tuning (EADGBe)

Intro

guitar 1
e-----------------------------------|
B-----------------------------------|
G--------9-9-10-10-12-------9-9-10--|
D--10-10--------------10-10---------|
A-----------------------------------|
E-----------------------------------|

guitar 2
e--------------------------------| repeat a few times
B--12-13----------12-13----------|
G----------9-10-----------9-9-10-|
D--------------------------------|
A--------------------------------|
E--------------------------------|

Verse/ prechorus

Guitar 2 continues during verse and prechorus

Chorus
e-----------------------------------------------------------------------|
B-----------------------------------------------------------------------|
G--9~~~~~~~~~-7~~~~~~~~~~~-5~~~~~~~~~~~~-10~~~~~~~~~~~~-9~~~~~~~~~~~~~--|
D--9~~~~~~~~~-5~~~~~~~~~~~-3~~~~~~~~~~~~--8~~~~~~~~~~~~-7~~~~~~~~~~~~~--|
A--7~~~~~~~~~-5~~~~~~~~~~~-3~~~~~~~~~~~~--8~~~~~~~~~~~~-7~~~~~~~~~~~~~--|
E-----------------------------------------------------------------------|

Repeat verse, prechorus, and chorus

Bridge
e--15-12-15-12-15-12-15-12--| x4
B---------------------------|
G---------------------------|
D---------------------------|
A---------------------------|
E---------------------------|

repeat chorus

thats it.. i dont think its all right, but its pretty close, lol
            
Submit corrections

↑ Back to top | Tablatures and chords for acoustic guitar and electric guitar, ukulele, drums are parodies/interpretations of the original songs. You may use it for private study, scholarship, research or language learning purposes only