» » »

Metallica - Seek And Destroy Ukulele

Artists:  A B C D E F G H I J K L M N O P Q R S T U V W X Y Z # 

Seek And Destroy Ukulele

(ver. 1) Click to play this song!
Metallica
 Rating:
4.4/5 (8 votes)


 Seek And Destroy lessons Tabs too difficult? Try these video lessons and learn fast
 
                A|-0-0-------0-------0-------------|  
E|-------------5-6-5-------3-----5-| x8 (You don't have to play open A)
C|-----2-3-2-----------5-4---4-----|
G|-----------------------------5---|

A|-------------12-10-|
E|-------------------|
C|-------------------|
G|-9-7-4-7-4-3-------|


A|---------5-7-5-7---------12-10-7---|
E|-0-0-0-0---------0-0-0-0---------6-|x4
C|---------7-9-7-9-------------------|
G|-----------------------------------|

A|-----------------------------5---|
E|-0-0-0-0-0-0-0-0-0-0-0-0-7-6---7-|x4
D|---------------------------------|
G|---------------------------------|

A|-0-0-0-0-------0-0-0-0-------0-0-0-0-------|-5-3-------------|
E|-------------------------------------------|-----5-4-3-------|
C|---------2-4-2---------2-4-2---------2-4-2-|-----------------|
G|-------------------------------------------|-----------------|

A|-0-0-0-0-------0-0-0-0-------0-0-0-0-------|
E|-------------------------------------------|
C|---------2-4-2---------2-4-2---------2-4-2-|
G|-------------------------------------------|

A|-------------12-10-|
E|-------------------|x2
C|-------------------|
G|-9-7-4-7-4-3-------|

A|---------|-x-x-x-x-x-x-x-x-x-x-x-x-x-x-x-|
E|-7-6-5-4-|-x-x-x-x-x-x-x-x-x-x-x-x-x-x-x-|x4
C|-7-6-5-4-|-x-x-x-x-x-x-x-x-x-x-x-x-x-x-x-|
G|-7-6-5-4-|-x-x-x-x-x-x-x-x-x-x-x-x-x-x-x-|

A|-0-0-------0-------0-------------|  
E|-------------5-6-5-------3-----5-| x4 (You don't have to play open A)
C|-----2-3-2-----------5-4---4-----|
G|-----------------------------5---|

A|---------5-7-5-7---------12-10-7---|
E|-0-0-0-0---------0-0-0-0---------6-|x4
C|---------7-9-7-9-------------------|
G|-----------------------------------|

A|-----------------------------5---|
E|-0-0-0-0-0-0-0-0-0-0-0-0-7-6---7-|x4
D|---------------------------------|
G|---------------------------------|

A|-0-0-0-0-------0-0-0-0-------0-0-0-0-------|-5-3-------------|
E|-------------------------------------------|-----5-4-3-------|
C|---------2-4-2---------2-4-2---------2-4-2-|-----------------|
G|-------------------------------------------|-----------------|

A|-0-0-0-0-------0-0-0-0-------0-0-0-0-------|
E|-------------------------------------------|
C|---------2-4-2---------2-4-2---------2-4-2-|
G|-------------------------------------------|

A|-------------12-10-|
E|-------------------|x2
C|-------------------|
G|-9-7-4-7-4-3-------|

A|---------|-x-x-x-x-x-x-x-x-x-x-x-x-x-x-x-|
E|-7-6-5-4-|-x-x-x-x-x-x-x-x-x-x-x-x-x-x-x-|x4
C|-7-6-5-4-|-x-x-x-x-x-x-x-x-x-x-x-x-x-x-x-|
G|-7-6-5-4-|-x-x-x-x-x-x-x-x-x-x-x-x-x-x-x-|

A|-x-x---|
E|-x-x-4-|
C|-x-x-4-|
G|-x-x-4-|

A|-0-0-0---0-0---0---0-0---0-0---0---0-0---0-0------2-0---------0-|
E|-3-5---5-----5---3-----5-----5---2-----5-----5--------1-0-------|x4
C|------------------------------------------------0---------2-0---|
G|-----------------5---------------4------------------------------|

A|---------|-x-x-x-x-x-x-x-x-x-x-x-x-x-x-x-|
E|-7-6-5-4-|-x-x-x-x-x-x-x-x-x-x-x-x-x-x-x-|x3
C|-7-6-5-4-|-x-x-x-x-x-x-x-x-x-x-x-x-x-x-x-|
G|-7-6-5-4-|-x-x-x-x-x-x-x-x-x-x-x-x-x-x-x-|

A|-0-0-------0-------0-------------|  
E|-------------5-6-5-------3-----5-| x4 (You don't have to play open A)
C|-----2-3-2-----------5-4---4-----|
G|-----------------------------5---|

A|-------------12-10-|
E|-------------------|
C|-------------------|
G|-9-7-4-7-4-3-------|


A|---------5-7-5-7---------12-10-7---|
E|-0-0-0-0---------0-0-0-0---------6-|x4
C|---------7-9-7-9-------------------|
G|-----------------------------------|

A|-----------------------------5---|
E|-0-0-0-0-0-0-0-0-0-0-0-0-7-6---7-|x4
D|---------------------------------|
G|---------------------------------|

A|-0-0-0-0-------0-0-0-0-------0-0-0-0-------|-5-3-------------|
E|-------------------------------------------|-----5-4-3-------|
C|---------2-4-2---------2-4-2---------2-4-2-|-----------------|
G|-------------------------------------------|-----------------|

A|-0-0-0-0-------0-0-0-0-------0-0-0-0-------|
E|-------------------------------------------|
C|---------2-4-2---------2-4-2---------2-4-2-|
G|-------------------------------------------|

A|---------|-x-x-x-x-x-x-x-x-x-x-x-x-x-x-x-|
E|-7-6-5-4-|-x-x-x-x-x-x-x-x-x-x-x-x-x-x-x-|x4
C|-7-6-5-4-|-x-x-x-x-x-x-x-x-x-x-x-x-x-x-x-|
G|-7-6-5-4-|-x-x-x-x-x-x-x-x-x-x-x-x-x-x-x-|

A|-----------------------------------------------------------------|
E|-----0-0-----0-0-----0-0-0-0-0-0-----0-0-----0-0-----0-0-0-0-0-0-|x4
C|-7-6-----6-5-----5-4-------------7-6-----6-2-----2-4-------------|
G|-----------------------------------------------------------------|

A|-x-x-x-x-x-2-x-x-1-x-x-2-x-x-4\2-|
E|-x-x-4-x-x-3-x-x-2-x-x-3-x-x-5\3-|x8
C|-x-x-4-x-x-2-x-x-1-x-x-2-x-x-4\2-|
G|-x-x-4-x-x-x-x-x-x-x-x-x-x-x-x-x-|

A|-------------12-10-|
E|-------------------|x3
C|-------------------|
G|-9-7-4-7-4-3-------|

A|-x-x-x-x---|
E|-x-x-x-x-4-|
C|-x-x-x-x-4-|
G|-x-x-x-x-4-|
            
Submit corrections



        Seek And Destroy lessons Hard to play? Try these video lessons and learn fast Seek And Destroy lessons
        
↑ Back to top | Tablatures and chords for acoustic guitar and electric guitar, ukulele, drums are parodies/interpretations of the original songs. You may use it for private study, scholarship, research or language learning purposes only