» » »

Metallica - Halo On Fire Tabs

Artists:  A B C D E F G H I J K L M N O P Q R S T U V W X Y Z # 

Halo On Fire Tabs

(ver. 1) Click to play this song!
Metallica
 Rating:
4.2/5 (24 votes)

 Halo On Fire  lessons Tabs too difficult? Try these video lessons and learn fast
 
                [Intro]

e|---------------------------------------------------------------------------| 1st Time & 3th.
B|---------------------------------------------------------------------------|
G|---------------------------------------------------------------------------|
D|-----5--4-------------4--3---------5--4----5-4-5---------------------------|
A|2----3--2------2-2-2--2--1----2----3--2----------6-------------------------|
E|0--------------0-0-0----------0--------------------------------------------|
                 * * *
e|---------------------------------------------------------------------------| 2 & 4th time.
B|---------------------------------------------------------------------------|
G|---------------------------------------------------------------------------|
D|-----5--4-------------4--3---------5--4----5-4-----------------------------|
A|2----3--2------2-2-2--2--1----2----3--2--------7-6---7-9-7-----------------|
E|0--------------0-0-0----------0--------------------------------------------|
                 * * *

e|--------------|
B|--------------|
G|--------------|
D|------12--9---|
A|-2~---10--7---|
E|-0------------| (4x)

e|--------------------------|
B|--------------------------|
G|--------------------------|
D|-9-7-0-7-5-0-5-4----2~----|
A|--------------------------|
E|--------------------------|

         -CLEAN-
e|-------------------------|
B|-------------------------|
G|------0---------0--------|
D|---2---------2-------2---|
A|----------2--------2-----|
E|0------------------------| [3x]

e|-------------------------|
B|-------------------------|
G|------0---------0--------|
D|---2---------2--------2--|
A|-2---------1--------2----|
E|-------------------------| [1x]

[Verse]

e|-------------------------|
B|-------------------------|
G|------0---------0--------|
D|---2---------2-------2---|
A|----------2--------2-----|
E|0------------------------| [3x]

e|-------------------------|
B|-------------------------|
G|------0---------0--------|
D|---2---------2--------2--|
A|-2---------1--------2----|
E|-------------------------|[1x]



[Chorus]

e|--------------|
B|--------------|
G|--------------|
D|--------------|
A|--------------|
E|-7---6---7----| [1x]

e|---------------------------------------------------------------------------| 1st & 3th Time.
B|---------------------------------------------------------------------------|
G|---------------------------------------------------------------------------|
D|-----5--4-------------4--3---------5--4----5-4-5---------------------------|
A|2----3--2------2-2-2--2--1----2----3--2----------6-------------------------|
E|0--------------0-0-0----------0--------------------------------------------|
                 * * *
e|---------------------------------------------------------------------------| 2 & 4th time.
B|---------------------------------------------------------------------------|
G|---------------------------------------------------------------------------|
D|-----5--4-------------4--3---------5--4----5-4-----------------------------|
A|2----3--2------2-2-2--2--1----2----3--2--------7-6---7-9-7-----------------|
E|0--------------0-0-0----------0--------------------------------------------|
                 * * *

e|--------------|
B|--------------|
G|--------------|
D|------12--9---|
A|-2~---10--7---|
E|-0------------| (4x)

e|--------------------------|
B|--------------------------|
G|--------------------------|
D|-9-7-0-7-5-0-5-4----2~----|
A|--------------------------|
E|--------------------------|

         -CLEAN-
e|-------------------------|
B|-------------------------|
G|------0---------0--------|
D|---2---------2-------2---|
A|----------2--------2-----|
E|0------------------------| [3x]

e|-------------------------|
B|-------------------------|
G|------0---------0--------|
D|---2---------2--------2--|
A|-2---------1--------2----|
E|-------------------------| [1x]

[Verse]

e|-------------------------|
B|-------------------------|
G|------0---------0--------|
D|---2---------2-------2---|
A|----------2--------2-----|
E|0------------------------| [3x]

e|-------------------------|
B|-------------------------|
G|------0---------0--------|
D|---2---------2--------2--|
A|-2---------1--------2----|
E|-------------------------|[1x]

[Chorus]

e|--------------|
B|--------------|
G|--------------|
D|--------------|
A|--------------|
E|-7---6---7----| [1x]

e|---------------------------------------------------------------------------| 1st & 3th Time.
B|---------------------------------------------------------------------------|
G|---------------------------------------------------------------------------|
D|-----5--4-------------4--3---------5--4----5-4-5---------------------------|
A|2----3--2------2-2-2--2--1----2----3--2----------6-------------------------|
E|0--------------0-0-0----------0--------------------------------------------|
                 * * *
e|---------------------------------------------------------------------------| 2 & 4th time.
B|---------------------------------------------------------------------------|
G|---------------------------------------------------------------------------|
D|-----5--4-------------4--3---------5--4----5-4-----------------------------|
A|2----3--2------2-2-2--2--1----2----3--2--------7-6---7-9-7-----------------|
E|0--------------0-0-0----------0--------------------------------------------|
                 * * *

e|--------------|
B|--------------|
G|--------------|
D|------12--9---|
A|-2~---10--7---|
E|-0------------| (4x)
            
Submit corrections


        Halo On Fire  lessons Hard to play? Try these video lessons and learn fast Halo On Fire  lessons
        
↑ Back to top | Tablatures and chords for acoustic guitar and electric guitar, ukulele, drums are parodies/interpretations of the original songs. You may use it for private study, scholarship, research or language learning purposes only