» » »

Mercyme - Even If Tabs

Artists:  A B C D E F G H I J K L M N O P Q R S T U V W X Y Z # 

Even If Tabs

(ver. 1) Click to play this song!
Mercyme
 Rating:
4.3/5 (29 votes)

 Even If lessons Tabs too difficult? Try these video lessons and learn fast
 
                [Intro]

e|-5-----5-5-----5-5-----5-6-----5-----5-5-----5-5-----5-6--|
B|----6-------6-------6-------------6-------6-------6-------|
G|-------------------------0-----------------------------0--|
D|----------------------------------------------------------|
A|----------------------------------------------------------|
E|----------------------------------------------------------|


[Verse 1]

e|-5-----5-5-----5-5-----5-6-----------------------|
B|----6-------6-------6--------5---5-5---5-5---5-6-|
G|-------------------------0-----5-----5-----5-----|
D|-------------------------------------------------|
A|-------------------------------------------------|
E|-------------------------------------------------|
They say sometimes you win some Sometimes you lose some

e|------------------------------------------------|
B|-6----6-6-----6-6-----6-5---5-3-----3-3----3-3--|
G|---7-------7-------7------5-----3-------3-------|
D|------------------------------------------------|
A|------------------------------------------------|
E|------------------------------------------------|

And right now Right now I'm losing bad

e|-5-----5-5-----5-5-----5-6-----------------------|
B|----6-------6-------6--------5---5-5---5-5---5-6-|
G|-------------------------0-----5-----5-----5-----|
D|-------------------------------------------------|
A|-------------------------------------------------|
E|-------------------------------------------------|

I've stood on this stage Night after night Reminding the brokenIt'll be alright
e|-------------------------------------------------------|
B|-6----6-6-----6-6-----6-5---5-3-----3-3----3-3---3-3---|
G|---7-------7-------7------5-----3-------3------3-------|
D|-------------------------------------------------------|
A|-------------------------------------------------------|
E|-------------------------------------------------------|

But right now Oh right now I just can't



[Prechorus]
e|-----------------------------------------------------|
B|-6----6-6-----6-6-----6-5---5-3-----3-3----3-3---3-3-|
G|---7-------7-------7------5-----3-------3------3-----|
D|-----------------------------------------------------|
A|-----------------------------------------------------|
E|-----------------------------------------------------|
It's easy to sing When there's nothing to bring me down

e|-----------------------------------------------------|
B|-6----6-6-----6-6-----6-5---5-3-----3-3----3-3---3-3-|
G|---7-------7-------7------5-----3-------3------3-----|
D|-----------------------------------------------------|
A|-----------------------------------------------------|
E|-----------------------------------------------------|
But what will I say When I'm held to the flame Like I am right now



[Chorus 1]
F
I know You're able

And I know You can
C
Save through the fire

With Your mighty hand
    Dm
But even if You don't
   Bb           F
My hope is You alone

e|-5-----5-5-----5-5-----5-6-----|
B|----6-------6-------6----------|
G|-------------------------0-----|
D|-------------------------------|
A|-------------------------------|
E|-------------------------------|

[Verse 2]

e|-5-----5-5-----5-5-----5-6-----------------------|
B|----6-------6-------6--------5---5-5---5-5---5-6-|
G|-------------------------0-----5-----5-----5-----|
D|-------------------------------------------------|
A|-------------------------------------------------|
E|-------------------------------------------------|

They say it only takes a little faith To move a mountain
e|------------------------------------------------|
B|-6----6-6-----6-6-----6-5---5-3-----3-3----3-3--|
G|---7-------7-------7------5-----3-------3-------|
D|------------------------------------------------|
A|------------------------------------------------|
E|------------------------------------------------|

Well Good thing A little faith is all I have right now



[Prechorus]
e|-----------------------------------------------------|
B|-6----6-6-----6-6-----6-5---5-3-----3-3----3-3---3-3-|
G|---7-------7-------7------5-----3-------3------3-----|
D|-----------------------------------------------------|
A|-----------------------------------------------------|
E|-----------------------------------------------------|
But God when You choose To leave mountains unmovable
e|-----------------------------------------------------|
B|-6----6-6-----6-6-----6-5---5-3-----3-3----3-3---3-3-|
G|---7-------7-------7------5-----3-------3------3-----|
D|-----------------------------------------------------|
A|-----------------------------------------------------|
E|-----------------------------------------------------|
Give me the strength To be able to sing It is well with my soul



[Chorus 2]
F
I know You're able

And I know You can
C
Save through the fire

With Your mighty hand
    Dm
But even if You don't
   Bb
My hope is You alone

F
I know the sorrow

I know the hurt
      C
Would all go away

If You'd just say the word
    Dm
But even if You don't
   Bb
My hope is You alone

[Bridge]

     Dm
You've been faithful
  Bb         F
You've been good
          C
All of my days
       Dm     Bb       F
Jesus, I will cling to You
          C
Come what may
              Bb
‘Cause I know You're able
           F
I know You can

[Chorus 2]

F
I know You're able

And I know You can
C
Save through the fire

With Your mighty hand
    Dm
But even if You don't
   Bb
My hope is You alone

F
I know the sorrow

I know the hurt
      C
Would all go away

If You'd just say the word
    Dm
But even if You don't
   Bb
My hope is You alone

F C Dm Bb

[Outro]
      F            C
It is well with my soul
      Bb          F    C       F
It is well, It is well with my soul            
Submit corrections


        Even If lessons Hard to play? Try these video lessons and learn fast Even If lessons
        
↑ Back to top | Tablatures and chords for acoustic guitar and electric guitar, ukulele, drums are parodies/interpretations of the original songs. You may use it for private study, scholarship, research or language learning purposes only