» » »

Mercy Me - Sanctified Bass

Artists:  A B C D E F G H I J K L M N O P Q R S T U V W X Y Z # 

Sanctified Bass

(ver. 1) Click to play this song!
Mercy Me
 Rating:
4.4/5 (5 votes)


 Sanctified lessons Tabs too difficult? Try these video lessons and learn fast
 
                [Intro]
F#|----------------|
C#|----------------|
G#|----------------| (x8)
D#|----------------|

[Verse 1]
Let there be no condemnation...
F#|----------------|
C#|----------------|
G#|----------------| (x16)
D#|----------------|

[Pre-Chorus]
We worship with the sound...
F#|--------|--------|--------|--------|--------|--------|--------|--------|
C#|--------|--------|--------|--------|--------|--------|--------|--------|
G#|0-------|2-------|4-------|------4\|0-------|2-------|4-------|--------|
D#|--------|--------|--------|--------|--------|--------|--------|--------|

[Chorus]
Sanctified...
F#|--------|--------|--------|--------|--------|--------|--------|--------|
C#|--------|--------|--------|--------|--------|--------|--------|--------|
G#|--------|--------|0-------|--------|--------|--------|0-------|--------|
D#|0-------|--------|--------|--------|0-------|--------|--------|--------|

[Interlude]
F#|----------------|----------------|----------------|----------------|
C#|----------------|----9-----------|7-7-------------|----------------|
G#|4-4-2-4-------4/|7-7---7-------7-|----7-----------|--0-7-4---0-4-2-| (x2)
D#|----------------|----------------|------9-----(9)\|----------------|

[Verse 2]
No greater love has ever been known...
F#|----------------|----------------|----------------|----------------|
C#|----------------|----9-----------|7-7-------------|----------------|
G#|4-4-2-4-------4/|7-7---7-------7-|----7-----------|--0-7-4---0-4-2-| (x4)
D#|----------------|----------------|------9-----(9)\|----------------|

[Pre-Chorus]
Let all creation sing...
F#|----------------|----------------|----------------|----------------|
C#|----------------|----------------|----------------|----------------|
G#|0-0-0-0-0-0-0-0-|2-2-2-2-2-2-2-2-|4-4-4-4-4-4-4-4-|4-4-4-4-4-4-4-4-| (x2)
D#|----------------|----------------|----------------|----------------|

[Chorus] 
Sanctified...
F#|--------|--------|--------|--------|--------|--------|--------|--------|
C#|--------|--------|--------|--------|--------|--------|--------|--------|
G#|--------|--------|0-0-0-0-|0-0-0-0-|--------|-----2-2|0-0-0-0-|0-0-0-0-| (x2)
D#|0-0-0-0-|0-0-0-0-|--------|--------|0-0-0-0-|0-0-0-0-|--------|--------|

[Bridge]
And I know that I will never be the same...
F#|------------------------|------------------------|------------------------|------------------------|
C#|------------------------|------------------------|------------------------|------------------------|
G#|12-12-12-12-12-12-12-12-|14-14-14-14-14-14-14-14-|16-16-16-16-16-16-16-16-|16-16-16-16-16-16-16-16\|
D#|------------------------|------------------------|------------------------|------------------------|

F#|------------------------|------------------------|------------------------|------------------------|
C#|------------------------|------------------------|------------------------|------------------------|
G#|12-12-12-12-12-12-12-12-|14-14-14-14-14-14-14-14-|16-16-16-16-16-16-16-16-|16-16-16-16-16-16-16----|
D#|------------------------|------------------------|------------------------|---------------------0--|

F#|----------------|----------------|----------------|----------------|
C#|----------------|----------------|----------------|----------------|
G#|0-0-0-0-0-0-0-0-|2-2-2-2-2-2-2-2-|4-4-4-4-4-4-4-4-|----------------|
D#|----------------|----------------|----------------|2/4\2/4\2/4\2/4-|

F#|----------------|----------------|----------------|----------------|
C#|----------------|----------------|----------------|----------------|
G#|0-0-0-0-0-0-0-0-|2-2-2-2-2-2-2-2-|4-4-4-4-4-4-4-4-|4-4-4-4-4-4-4-4-|
D#|----------------|----------------|----------------|----------------|

[Chorus]
Sanctified...
F#|--------|--------|--------|--------|
C#|--------|--------|--------|--------|
G#|--------|--------|0-0-0-0-|0-0-0-0-|
D#|0-------|--------|--------|--------|

(There's lots of variation here that's difficult to hear)
F#|--------|--------|--------|--------|
C#|--------|--------|--------|--------|
G#|--------|--------|0-0-0-0-|0-0-0-0-| (x9)
D#|0-0-0-0-|0-0-0-0-|--------|--------|

F#|--------|
C#|--------|
G#|--------|
D#|0-------|
            
Submit corrections



        Sanctified lessons Hard to play? Try these video lessons and learn fast Sanctified lessons
        
↑ Back to top | Tablatures and chords for acoustic guitar and electric guitar, ukulele, drums are parodies/interpretations of the original songs. You may use it for private study, scholarship, research or language learning purposes only