Home » M » Mercy Me »

Mercy Me - Dear Younger Me Tabs

Artists:  A B C D E F G H I J K L M N O P Q R S T U V W X Y Z # 

Dear Younger Me Tabs

(ver. 1) Click to play this song!
Mercy Me
[Intro]

e |-----------------------------------------------------------------|
B |-9----9--9---7---9----9--9---7---5----5--5---4---2----2--2----2--|
G#|----0---------------0---------------0---------------0-------0----|
D |-----------------------------------------------------------------|
A |-7-7-7-7-7-7-7-7-7-7-7-7-7-7-7-7-4-4-4-4-4-4-2-2-0-0-0-0-0-0-0-0-|
E |-----------------------------------------------------------------|


[Verse I]

e |-----------------------------------------------------------------|
B |-9----9--9---7---9----9--9---7---5----5--5---4---2----2--2----2--|
G#|----0---------------0---------------0---------------0-------0----|
D |-----------------------------------------------------------------| X2
A |-7-7-7-7-7-7-7-7-7-7-7-7-7-7-7-7-4-4-4-4-4-4-2-2-0-0-0-0-0-0-0-0-|
E |-----------------------------------------------------------------|

e |-----------------------------|
B |-4----4--5----5--2----2--2---|
G#|----3-------5-------0--------|
D |-----------------------------|
A |-2-2-2-2-4-4-4-4-0-0-0-0-0---|
E |-----------------------------|


[Interlude]

e |-----------------------------------------------------------------|
B |-9----9--9---7---9----9--9---7---5----5--5---4---2----2--2----2--|
G#|----0---------------0---------------0---------------0-------0----|
D |-----------------------------------------------------------------| 
A |-7-7-7-7-7-7-7-7-7-7-7-7-7-7-7-7-4-4-4-4-4-4-2-2-0-0-0-0-0-0-0-0-|
E |-----------------------------------------------------------------|


[Verse II]

e |-----------------------------------------------------------------|
B |-9----9--9---7---9----9--9---7---5----5--5---4---2----2--2----2--|
G#|----0---------------0---------------0---------------0-------0----|
D |-----------------------------------------------------------------| X2
A |-7-7-7-7-7-7-7-7-7-7-7-7-7-7-7-7-4-4-4-4-4-4-2-2-0-0-0-0-0-0-0-0-|
E |-----------------------------------------------------------------|

e |--------------------------------------------------------------|
B |-4----4--5----5--2----2--2----2---4----4--5----5--2----2--2---|
G#|----3-------5-------0-------0--------3-------5-------0--------|
D |--------------------------------------------------------------|
A |-2-2-2-2-4-4-4-4-0-0-0-0-0-0-0-0--2-2-2-2-4-4-4-4-0-0-0-0-0---|
E |--------------------------------------------------------------|

[Interlude]

[Bridge]

e |------------------------------------------------|
B |-10-----10---9------9----4------4----4------4---|
G#|-----10----------8-----------3-----------3------| 
D |------------------------------------------------| X5
A |-9--9--9--9--7--7--7--7--2--2--2--2--2--2--2--2-|
E |------------------------------------------------|

e |---------2--4--5--7-|
B |-2----2-------------|
G#|----0---------------|
D |--------------------|
A |-0-0-0-0-0----------|
E |--------------------|


[Outro]

e |-----------------------------------------------------------------|
B |-9----9--9---7---9----9--9---7---5----5--5---4---2----2--2----2--|
G#|----0---------------0---------------0---------------0-------0----|
D |-----------------------------------------------------------------| Repeat until end
A |-7-7-7-7-7-7-7-7-7-7-7-7-7-7-7-7-4-4-4-4-4-4-2-2-0-0-0-0-0-0-0-0-|
E |-----------------------------------------------------------------|            
Submit corrections

↑ Back to top | Tablatures and chords for acoustic guitar and electric guitar, ukulele, drums are parodies/interpretations of the original songs. You may use it for private study, scholarship, research or language learning purposes only