Home » M » Melvins »

Melvins - Teet Chords

Artists:  A B C D E F G H I J K L M N O P Q R S T U V W X Y Z # 

Teet Chords

(ver. 1) Click to play this song!
Melvins
 Rating:
4.4/5 (17 votes)
                [Intro]
 
  |--pm--|  |pm|    |--pm--|  |-pm-|
E|-------------------------------------|
B|-------------------------------------|
G|-------------------------------------|
D|-9-9-9-9-9--9-3----9-9-9-9-9--9-9-9--|
A|-9-9-9-9-9--9-2----9-9-9-9-9--9-9-9--|
D|-9-9-9-9-9--9-3----9-9-9-9-9--9-9-9--|
 
E|--13-----------------------14-------|
B|------------------------------4\10--|
G|------------------------------4\10--|
D|------------------------------------|
A|------------------------------------|
D|------------------------------------|
 
 
[Chorus]
                                             |pm|
E|-------------------------------------------------------|
B|-------------------------------------------------------|
G|-------------------------------------------------------|
D|---10---10---10-13-13-13-7-7--7--7-7\9-9-9--9-7-9-9-9--|
A|-2-10---10---10-13-13-13-7-7--7--7-7\9-9-9--9-7-9-9-9--|
D|-1-10---10---10-13-13-13-7-7--7--7-7\9-9-9--9-7-9-9-9--|
 
                                           |pm|
E|-----------------------------------------------------|
B|-----------------------------------------------------|
G|-----------------------------------------------------|
D|-10---10---10-13-13-13-7-7--7--7-7\9-9-9--9-7-9-9-9--|
A|-10---10---10-13-13-13-7-7--7--7-7\9-9-9--9-7-9-9-9--|
D|-10---10---10-13-13-13-7-7--7--7-7\9-9-9--9-7-9-9-9--|
 
E|------------------------------------------------------------------------------------------------------|
B|------------------------------------------------------------------------------------------------------|
G|---------------------------------------------4\10-------------4\10-------------4\10-------------4\10--|
D|-10---10---10-13-13-13-7-7--7--7-7\9-9-9-0-3-4\10-7\9-9-9-0-3-4\10-7\9-9-9-0-3-4\10-7\9-9-9-0-3-4\10--|
A|-10---10---10-13-13-13-7-7--7--7-7\9-9-9-0-3------7\9-9-9-0-3------7\9-9-9-0-3------7\9-9-9-0-3-------|
D|-10---10---10-13-13-13-7-7--7--7-7\9-9-9-0-3------7\9-9-9-0-3------7\9-9-9-0-3------7\9-9-9-0-3-------|
 
 
[Chorus 2]
                                            |pm|
E|------------------------------------------------------|
B|------------------------------------------------------|
G|------------------------------------------------------|
D|--10---10---10-13-13-13-7-7--7--7-7\9-9-9--9-7-9-9-9--|
A|--10---10---10-13-13-13-7-7--7--7-7\9-9-9--9-7-9-9-9--|
D|--10---10---10-13-13-13-7-7--7--7-7\9-9-9--9-7-9-9-9--|
 
                                           |pm|
E|-----------------------------------------------------|
B|-----------------------------------------------------|
G|-----------------------------------------------------|
D|-10---10---10-13-13-13-7-7--7--7-7\9-9-9--9-7-9-9-9--|
A|-10---10---10-13-13-13-7-7--7--7-7\9-9-9--9-7-9-9-9--|
D|-10---10---10-13-13-13-7-7--7--7-7\9-9-9--9-7-9-9-9--|
 
                                   |-pm-|  |pm|    |-pm-|  |pm|
E|------------------------------------------------------------------|
B|------------------------------------------------------------------|
G|------------------------------------------------------------------|
D|-10---10---10-13-13-13-7-7--7--7-7-9-9-9-9-9--3-----9-9-9-9-9--3--|
A|-10---10---10-13-13-13-7-7--7--7-7-9-9-9-9-9--2-----9-9-9-9-9--2--|
D|-10---10---10-13-13-13-7-7--7--7-7-9-9-9-9-9--3-----9-9-9-9-9--3--|
 
            
Submit corrections

↑ Back to top | Tablatures and chords for acoustic guitar and electric guitar, ukulele, drums are parodies/interpretations of the original songs. You may use it for private study, scholarship, research or language learning purposes only