Home » M » Melissa Horn »

Melissa Horn - Du R Nog Den Tabs

Artists:  A B C D E F G H I J K L M N O P Q R S T U V W X Y Z # 

Du R Nog Den Tabs

(ver. 1) Click to play this song!
Melissa Horn
My own interpretation. Simple and pretty nice! If you want to you can even keep to the 
E-string the whole song through (in the verses) and not mind the A-string. Listen to the 
song to make it right. Enjoy!

Capo 1

Vers:

e|-----------------------------|
B|-----3-------3-------3-------|
G|---------0-------0-------0---|
D|-----------------------------|
A|-----------------------------|
E|---3---3---3---3---3---3-----|
 igen mig...

e|-----------------------------|
B|-----3-------3-------3-------|
G|---------0-------0-------0---|
D|-----------------------------|
A|---3---3---3---3---3---3-----|
E|-----------------------------|
inte jag...

e|-----------------------------|
B|-----3-------3-------3-------|
G|---------0-------0-------0---|
D|-----------------------------|
A|---------------------------3-|
E|---3---3---3---3---3---3-----|
  frågan...              ...egentligen


Chorus:
Strumming

G Am C C

          G   Am   C
Du är nog den...mmm mmm
C               G       Am   C
Som jag borde vara hos


Lyrics:

Jag känner inte igen mig
Det här är inte jag
Jag tar allting så enkelt
Har förträngt hur det var
Tillbaks i gamla vanor
När du hörde av dig igen
Och jag ställer inte frågan
Vad ville du egentligen

Du är nog den
Som jag borde vara hos
Du är nog den
Som jag borde vara hos


Skyller inte ifrån mig
Men du märkte ingenting
Du behövde nån större
Och jag behövde nåt att längta till
För jag försvinner ibland
Och alla frågar vad jag tänker på
Men jag kan inte berätta
För man får inte tänka så

Men du är nog den
Som jag borde vara hos
Men du är nog den
Som jag borde vara hos

Klockan är sent
Det finns ingen tid, för dig
Jag lever mitt liv nu
Med någon som älskar mig

Men du är nog den....
            
Submit corrections

↑ Back to top | Tablatures and chords for acoustic guitar and electric guitar, ukulele, drums are parodies/interpretations of the original songs. You may use it for private study, scholarship, research or language learning purposes only