» » »

Melissa Etheridge - No Souvenirs Tabs

Artists:  A B C D E F G H I J K L M N O P Q R S T U V W X Y Z # 

No Souvenirs Tabs

(ver. 1) Click to play this song!
Melissa Etheridge
 Rating:
4/5 (4 votes)

 No Souvenirs lessons Tabs too difficult? Try these video lessons and learn fast
 
                #------------------------------------------------------------------------------##
Lines: 172

I don't know if this has been posted yet; there aren't any Melissa
Etheridge songs at ftp.nevada, so I'll assume it hasn't been.  Should
this be a repetition, please let me know.

I also dno't know if anyone is interested in this, but hey...if it
wasn't for this, I'd be doing assignments.  And we can't have that.

------------------------------------------------------------------------

CHORDS
		E    A    D    G    B    e
		--------------------------
	A	x    0    2    2    2    0
	A(2)    x    0    2    2    0    0
	D	x    x    0    2    3    2
	D(2)    x    x    0    2    3    0
	D/F#    2    0    0    2    3    x
	E	0    2    2    1    0    0
	Esus    0    2    2    2    0    0
	Fmaj7   x    3    3    2    1    0
	F+      x    x    3    2    2    1
	G	3    2    0    0    3    3
	G6	3    x    2    0    3    3

TAB

verse
e  ---------------- ---------------- ---------------- -----------------|
B  ---------------- ---------------- ---------------- -----------------|
G  2-----2-----2--- 2-----2-----2--- 2-----2-----2--- 2-----2-2-2-2-2--|
D  2-----2-----2--- 2-----2-----2--- 2-----2-----2--- 2-----2-2-2-2-2--|
A  0-0-0-0-0-0-0-0- 0-0-0-0-0-0-0-0- 0-0-0-0-0-0-0-0- 0-0-0-0-0-0-0-0--|
E  ---------------- ---------------- ---------------- -----------------|

G6                                   A
e  3-----3--------- ---------------- ---------------- ----------------|
B  0-----0--------- ---------------- ---------------- ----------------|
G  0-----0--------- ---------------- 2-----2-----2--- 2-----2-----2---|  etc
D  2-----2--------- ---------------- 2-----2-----2--- 2-----2-----2---|
A  ---------------- ---------------- 0-0-0-0-0-0-0-0- 0-0-0-0-0-0-0-0-|
E  3-----3--------- ---------------- ---------------- ----------------|

verse interlude

D(2)                                 A(2)
e  --0---------0--- --0-----0-----0- --0---------0--- --0-----0-----0-|
B  ----3---3-----3- ----3-----3----- ----0---0-----0- ----0-----0-----|
G  ------2---2----- ------2-----2--- ------2---2----- ------2-----2---|
D  0--------------- 0--------------- ---------------- ----------------|
A  ---------------- ---------------- 0--------------- 0---------------|
E  ---------------- ---------------- ---------------- ----------------|

Esus                E                Esus             E
e  0-0-----0------- 0-0-----0------- 0-0-----0------- 0-0-----0-------|
B  0---0-----0---0- 0---0-----0---0- 0---0-----0---0- 0---0-----0---0-|
G  2-----2-----2--- 1-----1-----1--- 2-----2-----2--- 1-----1-----1---|
D  2--------------- 2--------------- 2--------------- 2---------------|
A  2--------------- 2--------------- 2--------------- 2---------------|
E  0--------------- 0--------------- 0--------------- 0---------------|

chorus

A(2)                                 D(2)
e  0--------------- ---------------- 0--------------- ----------------|
B  0--------------- ---------------- 3--------------- ----------------|
G  2--------------- ---------------- 2--------------- ----------------|
D  2--------------- ---------------- 0--------------- ----------------|
A  0--------------- ---------------- ---------------- ----------------|
E  ---------------- ---------------- ---------------- ----------------|

A(2)                                 D(2)
e  --0-----0------- --0-----0------- --0-----0------- --0-----0-------|
B  ----0-----0---0- ----0-----0---0- ----3-----3---3- ----3-----3---3-|
G  ------2-----2--- ------2-----2--- ------2-----2--- ------2-----2---|
D  2--------------- 2--------------- 0--------------- 0---------------|
A  0--------------- 0--------------- ---------------- ----------------|
E  ---------------- ---------------- ---------------- ----------------|

   A                        G6                          A
Hello hello this is Romeo       callin' from a jackpot telephone

                                   G6
Shame, shame but I love your name

                                 A
and the way you make the buffalo roam.

      D(2)             A(2)
Oh, fly, fly, I guess  this is goodbye.

Esus                   E            Esus               E
Oh, you packed up your heart and you left no souvenirs.

A(2)                               D(2)
But if you want me you can call me in the night you know where I'll be

A(2)                          D(2)
Broken lover you can touch me in the dark the innocent can't see

A(2)                        D(2)
Lock it up now hide the key it would mean surrender to let me see, oh

A(2)                                  D(2)
brave brave soldier keep it undercover you fell alone like no other lover

A                                   D
Burn the pictures break the records run far away to a northern town

A
Sell your fear and leave me standing here

E
    with no souvenirs.

Once twice I thought it might be nice
To come into your kitchen and play
Cool cool just a crazy fool
I never saw it any other way
Oh wait wait I guess it's just too late
Oh you made up your mind
Love shouldn't be so hard

But if you want me you can call me
In the night you know where I'll be
Broken lover you can touch me
In the dark the innocent can't see
You lock it uo now hide the key
It would mean surrender to let me see
Oh brave brave soldier keep it undercover
You fell alone like no other lover
Burn the pictures break the records ru
Run far away to a northern town
Sell your fear and leave me standing here
With no souvenirs

A           G               Fmaj7
No shirt no shoes no jacket no blues your car's for sale

E                 A
you forward your mail you're growin' your hair

G                                  Fmaj7
You don't wanna know where I'm callin' you from

E
or how come.


But if you want me you can call me
In the night you know where I'll be
Broken lover you can touch me
In the dark the innocent can't see
Lock it up now hide the key
It would mean surrender to let me see
Oh brave brave soldier keep it undercover
You fell alone like no other lover
Burn the pictures break the records
Run far away to a northern town
Sell your fear and leave me standing here
E
with no souvenirs.

A   A   D   D/F# [one bar each, four times]
4th  D/F#
         hel-
A        G6      F+
lo hello this is Romeo....

My apologies to Melissa.

Tina
            
Submit corrections


        No Souvenirs lessons Hard to play? Try these video lessons and learn fast No Souvenirs lessons
        
↑ Back to top | Tablatures and chords for acoustic guitar and electric guitar, ukulele, drums are parodies/interpretations of the original songs. You may use it for private study, scholarship, research or language learning purposes only