Home » M » Melanie Martinez »

Melanie Martinez - Mad Hatter Bass

Artists:  A B C D E F G H I J K L M N O P Q R S T U V W X Y Z # 

Mad Hatter Bass

(ver. 1) Click to play this song!
Melanie Martinez
Verse - 00.10 - 00.52

G|---------------------------------------------------------------------------|
D|---------------------------------------------------------------------------|
A|-----------------0------0-0-0x---3------3-3-3x---2-----2-2-2x--------------|
E|-0-----0-0-0x--------------------------------------------------------------| x8

Chorus - 00.52 - 01.13

G|---------------------------------------------------------------------------|
D|---------------------------------------------------------------------------|
A|-----------------3-3-3-3-2-2-2-2-----------------3-3-3-3-2-2-2-2-----------|
E|-0-0-0-0-5-5-5-5-----------------0-0-0-0-5-5-5-5---------------------------| x2

Verse - 01.23 - 01.54 

G|---------------------------------------------------------------------------|
D|---------------------------------------------------------------------------|
A|-----------------0------0-0-0x---3------3-3-3x---2-----2-2-2x--------------|
E|-0-----0-0-0x--------------------------------------------------------------| x8

Chorus - 01.54 - 02.15

G|---------------------------------------------------------------------------|
D|---------------------------------------------------------------------------|
A|-----------------3-3-3-3-2-2-2-2-----------------3-3-3-3-2-2-2-2-----------|
E|-0-0-0-0-5-5-5-5-----------------0-0-0-0-5-5-5-5---------------------------| x2


G|---------------------------------------------------------------------------|
D|---------------------------------------------------------------------------|
A|-----------------3-3-3-3-2-2-2-2-----------------3-3-3-3-2-2-1-------------|
E|-0-0-0-0-0-5-4-3-----------------0-0-0-0-5-5-5-5---------------2-----------| x2

Rest for Bridge

Chorus/Outro - 02.57 - End.

G|---------------------------------------------------------------------------|
D|---------------------------------------------------------------------------|
A|-----------------3-3-3-3-2-2-2-2-----------------3-3-3-3-2-2-2-2-----------|
E|-0-0-0-0-5-5-5-5-----------------0-0-0-0-5-5-5-5---------------------------| x2
            
Submit corrections

↑ Back to top | Tablatures and chords for acoustic guitar and electric guitar, ukulele, drums are parodies/interpretations of the original songs. You may use it for private study, scholarship, research or language learning purposes only