» » »

Meg And Dia - The One Tabs

Artists:  A B C D E F G H I J K L M N O P Q R S T U V W X Y Z # 

The One Tabs

(ver. 1) Click to play this song!
Meg And Dia
 Rating:
4/5 (4 votes)

 The One lessons Tabs too difficult? Try these video lessons and learn fast
 
                

The notes for the intro/verses are tabbed out below (played with slight variation 
throughout) and the chords played in the chorus/bridge are as follows:

F     133211
C     x32010
Dm    xx0231
Bb5   x133xx
G5    355xxx

INTRO
-----

    F                   Am                   C                     Bb5
e|--1--------|--0h1--1--0--|--------------|--0----0--0----|-----------|
B|--1---1----|--1----1--1--|--3h5p3--1----|--1----1--1h3--|-----------|
G|--0h2------|--2----2--2--|-----------2--|--0----0--0----|--------3--|
D|--3-----3--|--2----2--2--|--------------|--0h2--2--2----|-----3--3--|
A|--3--------|-------------|--------------|--3----3--3----|--1-----1--|
E|-----------|-------------|--------------|---------------|-----------|


VERSE 1
-------

    F                   Am                   C            Cadd9       Bb5
e|--1--------|--0h1--1--0--|--------------|--0----0--0----0--|-----------|
B|--1---1----|--1----1--1--|--3h5p3--1----|--1----1--1h3--3--|-----------|
G|--0h2------|--2----2--2--|-----------2--|--0----0--0----0--|--------3--|
D|--3-----3--|--2----2--2--|--------------|--0h2--2--2----2--|-----3--3--|
A|--3--------|-------------|--------------|--3----3--3----3--|--1-----1--|
E|-----------|-------------|--------------|------------------|-----------| x2

     Just go, just walk away 
     So bittersweet, you're already far away   
     Take with you our memories 
     They're opening like summer flowers


CHORUS  
------
F C Dm Bb5 
F C Dm Bb5 F
                   
     Don't you be fooled 
     I loved you more 
     Than I would ever dare tell you
     I'd ever dare tell you
     I'll let you go 
     I'm only holding you back 
     You're more than a small town 
     You're more than a small soul  


VERSE 2  
-------

    F                      Am                   C            Cadd9       Bb5
e|--1--------1--|--0h1--1--0--|--------------|--0----0--0----0--|-----------|
B|--1---1----1--|--1----1--1--|--3h5p3--1----|--1----1--1h3--3--|-----------|
G|--0h2------2--|--2----2--2--|-----------2--|--0----0--0----0--|--------3--|
D|--3-----3--3--|--2----2--2--|--------------|--0h2--2--2----2--|-----3--3--|
A|--3--------3--|-------------|--------------|--3----3--3----3--|--1-----1--|
E|--------------|-------------|--------------|------------------|-----------| x2

     Close those pretty eyes, don't look behind
     What did I tell you?  
     That past is past, don't let it follow you
     Don't think, that by any day
     I'll forget your face
     How could one forget you? 


CHORUS
------
F C Dm Bb5 
F C Dm Bb5

     Don't you be fooled 
     I loved you more 
     Than I would ever dare tell you
     I'd ever dare tell you
     I'll let you go 
     I'm only holding you back 
     You're more than a small town 
     You're more than a small soul  


BRIDGE
------
G5 C F Bb5

     Hard to let go of something once you get hold of it
     Once you get hold of it, yeah

G5 Bb5 G5 C

     Don't you think for a moment
     Don't you think for a moment, yeah
     Don't you think for a moment
     That you aren't worth all of it


CHORUS
------
F C Dm Bb5 
F C Dm Bb5

     Don't you be fooled 
     I loved you more 
     Than I would ever dare tell you
     I'd ever dare tell you
     I'll let you go 
     I'm only holding you back 
     You're more than a small town 
     You're more than a small soul  

          F
     Just go

          C
     Just walk away
            
Submit corrections


        The One lessons Hard to play? Try these video lessons and learn fast The One lessons
        
↑ Back to top | Tablatures and chords for acoustic guitar and electric guitar, ukulele, drums are parodies/interpretations of the original songs. You may use it for private study, scholarship, research or language learning purposes only