Home » M » Meg And Dia »

Meg And Dia - Monster Bass

Artists:  A B C D E F G H I J K L M N O P Q R S T U V W X Y Z # 

Monster Bass

(ver. 1) Click to play this song!
Meg And Dia
Monster by Meg & Dia

I had to print this tab for my band, so I stole it from songster (f**k da police \m/). 
It should be 100% correct.

Have fun :)


G|-----------------|-----------------|-----------------|-----------------|
D|-----------------|-----------------|-------------7-7-|-----------------|
A|-----------------|-----------------|-5-5-5-5-5-5-----|-----------------|
E|-r---------------|-2-2-2-2-2-2-2-2-|-----------------|-5-5-5-5-5-5-5-5-|

G|-----------------|-----------------|-----------------|-----------------|
D|-----------------|-----------------|-----------------|-----------------|
A|-----------------|-----------------|-5~~~~~~~~~~~~~~-|-----------------|
E|-2-2-2-2-2-2-2-2-|-2~~~~~~~~~~~~~~-|-----------------|-2~~~~~~~~~~~~~~-|

G|-----------------|-----------------|-----------------|-----------------|
D|-----------------|-----------------|-----------------|-----------------|
A|-5~~~~~~~~~~~~~~-|-----------------|-5-5-5-5-5-5-5-5-|-5-5-5-----------|
E|-----------------|-2-2-2-2-2-2-2-2-|-----------------|-------5-5-5-0-0-|

G|-----------------|-----------------|-----------------|-----------------|
D|-----------------|-----------------|-----------------|-----------------|
A|-----------------|-----------------|-----------------|-5-5-5-------2---|
E|-2-2-r---2-2-r---|-2-2-2-2-2-2-2-2-|-5-5-5-5-5-5-5-5-|-------5-5-5-----|

G|-----------------|------------------|-----------------|-----------------|
D|-----------------|------------------|-----------------|-----------------|
A|-2-2-2-2-2-2-2-r-|------------------|-----------------|-----------------|
E|-----------------|-2~~~~~~~~~~~~~~~-|-10~~~~~~~~~~10\-|-5---------------|

G|-----------------|-----------------|-----------------|-----------------|
D|-----------------|-----------------|-------------7-7-|-----------------|
A|-----------------|-----------------|-5-5-5-5-5-5-----|-----------------|
E|-0~~~~~~~~~~~~~~-|-2-2-2-2-2-2-2-2-|-----------------|-5-5-5-5-5-5-5-5-|

G|-----------------|-----------------|-----------------|-----------------|
D|-----------------|-----------------|-----------------|-----------------|
A|-----------------|-----------------|-5~~~~~~~~~~~~~~-|-----------------|
E|-0-0-0-0-0-0-0-0-|-2~~~~~~~~~~~~~~-|-----------------|-2~~~~~~~~~~~~~~-|

G|-----------------|-----------------|-----------------|-----------------|
D|-----------------|-----------------|-----------------|-----------------|
A|-5~~~~~~~~~~~~~~-|-----------------|-----------------|-5-5-5-----------|
E|-----------------|-2-2-2-2-2-2-2-2-|-5-5-5-5-5-5-5-5-|-------5-5-5-0-0-|

G|-----------------|-----------------|-----------------|-----------------|
D|-----------------|-----------------|-----------------|-----------------|
A|-----------------|-----------------|-----------------|-5-5-5-----------|
E|-2-2-r-02-2-2~~~-|-2-2-2-2-2-2-2-2-|-5-5-5-5-5-5-5-5-|-------5-5-5-0-0-|

G|-----------------|-----------------|-----------------|-----------------|
D|-----------------|-----------------|-----------------|-----------------|
A|-2~~~~~~~~~~~~~~-|-----------------|-5-5-5-5-5-5-5-7-|-0-0-0-0-0-0-0-0-|
E|-----------------|-2-2-2-2-2-2-2-2-|-----------------|-----------------|

G|-----------------|-----------------|-----------------|-----------------|
D|-----------------|-----------------|-----------------|-----------------|
A|-----------------|-----------------|-5-5-5-5-5-5-5-7-|-----------------|
E|-0-0-0-0-0-0-0-0-|-2-2-2-2-2-2-2-2-|-----------------|-5-5-5-5-5-5-5-5-|

G|-----------------|-----------------|-----------------|-----------------|
D|-----------------|-----------------|-----------------|-----------------|
A|-----------------|-----------------|-----------------|-555-5-555-5-54~-|
E|-0-0-0-0-0-0-0-0-|-222-2-222-2-20~-|-222-2-222-2-25~-|-----------------|

G|-----------------|-----------------|-----------------|-----------------|
D|-----------------|-----------------|-----------------|-----------------|
A|-555-5-555-5-57~-|-----------------|-----------------|-555-5-555-5-54~-|
E|-----------------|-222-2-222-2-20~-|-222-2-222-2-25~-|-----------------|

G|-----------------|-----------------|-----------------|-----------------|
D|-----------------|-----------------|-----------------|-----------------|
A|-555-5-555-5-5---|-----------------|-----------------|-------------5~~-|
E|--------------0~-|-~~~~~~~~~~~~~~~-|-----------------|-----------------|

G|-----------------|-----------------|-----------------|-----------------|
D|-----------------|-----------------|-----------------|-----------------|
A|-0-0-0-0-0-0-0-0-|-------------7-7-|---------00004444|-5-5-5-5-5-5-5-5-|
E|-----------------|-0-0-0-0-0-0-----|-22224444--------|-----------------|


G|-----------------|-----------------|-----------------|-----------------|
D|-----------------|-----------------|-----------------|-----------------|
A|-0-0-0-0-0-0-0-0-|-----------------|-----------------|-----------------|
E|-----------------|-0-0-0-0-0-0-0-0-|-002-2-002-2-002-|-002-2-002-2-002-|
            
Submit corrections

↑ Back to top | Tablatures and chords for acoustic guitar and electric guitar, ukulele, drums are parodies/interpretations of the original songs. You may use it for private study, scholarship, research or language learning purposes only