» » »

Meat Loaf - You Took The Words Right Out Of My Mouth Tabs

Artists:  A B C D E F G H I J K L M N O P Q R S T U V W X Y Z # 

You Took The Words Right Out Of My Mouth Tabs

(ver. 1) Click to play this song!
Meat Loaf
 Rating:
4.3/5 (28 votes)

 You Took The Words Right Out Of My Mouth lessons Tabs too difficult? Try these video lessons and learn fast
 
                [Spoken Intro]


[Intro]

e|-9--7------------------|-----------------------|-----------------------|-----------------------|
B|-------10--10-----9----|-7---------------------|-7---------------------|-----------------------|
G|-----------------------|-----------------------|----9--7--7-------6----|-----------------------|
D|-----------------------|-----------------------|-----------------------|-9---------------------|
A|-----------------------|-----------------------|-----------------------|-----------------------|
E|-----------------------|-----------------------|-----------------------|-----------------------|
   1     2      3   4      1                       1     2      3   4      1 

e|-17--17--17--17--------|-----------------------|-14--12----------------|-----------------------|--------|
B|------------------16---|-14--------------------|---------15--15----14--|-12-------------14--13-|--------|
G|-----------------------|-----------------------|-----------------------|-----------------------|-14-----|
D|-----------------------|-----------------------|-----------------------|-----------------------|--------|
A|-----------------------|-----------------------|-----------------------|-----------------------|--------|
E|-----------------------|-----------------------|-----------------------|-----------------------|--------|
   1        2     3 4      1                       1       2       3 4     1              4        1

[Verse 1]

    A   E | D    | 
    A   E | D    |
    A   E | D    |
    G     | 

e|----------------------------|--------------------------|-------------------------------|
B|----------------------------|--------------------------|-------------------------------|
G|----------------------------|--------------------------|-------------------------------|
D|--4-----6-----7-----9-------|---7--------7--7--------7-|-7--------7--7-----------------|
A|--2-----4-----5-----7-------|---7--------7--7--------7-|-7--------7--7-----------------|
E|----------------------------|---5--------5--5--------5-|-5--------5--5-----------------|


    A   E | D    | 
    A   E | D    |
    A   E | D    |
    G     | 

e|----------------------------|-------------------------|----------------------------|
B|----------------------------|-------------------------|----------------------------|
G|----------------------------|-------------------------|----------------------------|
D|--4-----6-----7--9--------4-|-----6-----7--9--------4-|--------6-----7-----9-------|
A|--2-----4-----5--7--------2-|-----4-----5--7--------2-|--------4-----5-----7-------|
E|----------------------------|-------------------------|----------------------------|

e|--------------------------|-------------------------------|
B|--------------------------|-------------------------------|
G|--------------------------|-------------------------------|
D|---7--------7--7--------7-|-7--------7--7-----------------|
A|---7--------7--7--------7-|-7--------7--7-----------------|
E|---5--------5--5--------5-|-5--------5--5-----------------|
                                                                                         

[Bridge 1]

    Bm F#m | G  A |
    Bm     | D  A |
                                                                       
    Bm F#m | G  A |
    F#m    |    E |

    2 bars break

[Chorus 1]

    D     | A    |
    G     | A    |
    D     | A    | 

e|----------------------------|-------------------------|----------------------------|---------------------|
B|----------------------------|-------------------------|----------------------------|---------------------|
G|----------------------------|-------------------------|----------------------------|------------9--------|
D|--4-----6-----7-----9-------|--------------------6----|--7-------------------------|--4---------9--------|
A|--2-----4-----5-----7-------|--4-----6-----7-----4----|--5-------------------------|--4---------7--------|
E|----------------------------|--2-----4-----5----------|----------------------------|--2------------------|

    D     | A    |
    G     | A    |
    D     | A    | 

e|----------------------------|-------------------------|----------------------------|---------------------|
B|----------------------------|-------------------------|----------------------------|---------------------|
G|----------------------------|-------------------------|----------------------------|------------9--------|
D|--4-----6-----7-----9-------|--------------------6----|--7-------------------------|--4---------9--------|
A|--2-----4-----5-----7-------|--4-----6-----7-----4----|--5-------------------------|--4---------7--------|
E|----------------------------|--2-----4-----5----------|----------------------------|--2------------------|


[Verse 2]

    A   E | D    | 
    A   E | D    |
    A   E | D    |
    G     | 

e|----------------------------|-------------------------|----------------------------|
B|----------------------------|-------------------------|----------------------------|
G|----------------------------|-------------------------|----------------------------|
D|--4-----6-----7--9--------4-|-----6-----7--9--------4-|--------6-----7-----9-------|
A|--2-----4-----5--7--------2-|-----4-----5--7--------2-|--------4-----5-----7-------|
E|----------------------------|-------------------------|----------------------------|

e|--------------------------|-------------------------------|
B|--------------------------|-------------------------------|
G|--------------------------|-------------------------------|
D|---7--------7--7--------7-|-7--------7--7-----------------|
A|---7--------7--7--------7-|-7--------7--7-----------------|
E|---5--------5--5--------5-|-5--------5--5-----------------|

    A   E | D    | 
    A   E | D    |
    A   E | D    |
    G     | 

e|----------------------------|--------------------------|-------------------------------|
B|----------------------------|--------------------------|-------------------------------|
G|----------------------------|--------------------------|-------------------------------|
D|--4-----6-----7-----9-------|---7--------7--7--------7-|-7--------7--7-----------------|
A|--2-----4-----5-----7-------|---7--------7--7--------7-|-7--------7--7-----------------|
E|----------------------------|---5--------5--5--------5-|-5--------5--5-----------------|
 

[Chorus 2]


    D     | A    |
    G     | A    |
    D     | A    | 

e|----------------------------|-------------------------|----------------------------|---------------------|
B|----------------------------|-------------------------|----------------------------|---------------------|
G|----------------------------|-------------------------|----------------------------|------------9--------|
D|--4-----6-----7-----9-------|--------------------6----|--7-------------------------|--4---------9--------|
A|--2-----4-----5-----7-------|--4-----6-----7-----4----|--5-------------------------|--4---------7--------|
E|----------------------------|--2-----4-----5----------|----------------------------|--2------------------|

    D     | A    |
    G     | A    |
    D     | A    | 

e|----------------------------|-------------------------|----------------------------|---------------------|
B|----------------------------|-------------------------|----------------------------|---------------------|
G|----------------------------|-------------------------|----------------------------|------------9--------|
D|--4-----6-----7-----9-------|--------------------6----|--7-------------------------|--4---------9--------|
A|--2-----4-----5-----7-------|--4-----6-----7-----4----|--5-------------------------|--4---------7--------|
E|----------------------------|--2-----4-----5----------|----------------------------|--2------------------|


[Bridge 2]

    A | D | A | D |     BASS + BASS DRUM ONLY (+ Snare and Headles Tambourine on count of 4)
    A | D | A | D |     BASS + PERCUSSION ONLY 
    A | D | A | D |     BASS + PERCUSSION + PIANO ONLY

e|---------------------------|---------------------------|
B|---------------------------|---------------------------|
G|---------------------------|---------------------------|
D|---------------------9-----|--7------------------------|
A|--7------------------7-----|--5------------------------|
E|--5------------------------|---------------------------|

e|---------------------------|---------------------------|
B|---------------------------|---------------------------|
G|---------------------------|---------------------------|
D|---------------------9-----|--7------------------------|
A|--7------------------7-----|--5------------------------|
E|--5------------------------|---------------------------|


[Vocal Outro]

            
Submit corrections


        You Took The Words Right Out Of My Mouth lessons Hard to play? Try these video lessons and learn fast You Took The Words Right Out Of My Mouth lessons
        
↑ Back to top | Tablatures and chords for acoustic guitar and electric guitar, ukulele, drums are parodies/interpretations of the original songs. You may use it for private study, scholarship, research or language learning purposes only