Home » M » Meatloaf »

Meatloaf - Id Die For You Tabs

Artists:  A B C D E F G H I J K L M N O P Q R S T U V W X Y Z # 

Id Die For You Tabs

(ver. 1) Click to play this song!
Meatloaf
Member Name: the edge
Real Name: Alan Kells

Intro: 

D D Dsus2 D Dsus4 Dsus4 

e--0--0--2--3--3--2--0-----0--2--0----0--0--2--3--3--2--0-----0--2--0 
B-----------------------3----------------------------------3--------- 
G-------------------------------------------------------------------- 
D-------------------------------------------------------------------- 
A-------------------------------------------------------------------- 
E-------------------------------------------------------------------- 

e--0--0--2--3--3--2--2--0--------3--5--7--0 
B--------------------------3--3------------ 
G------------------------------------------ 
D------------------------------------------ 
A------------------------------------------ 
E------------------------------------------ 

In chorus: 

After 'I'd lie for you and that's the truth' 
e-----------0--2--0 
B--3--3--3--------- 
G------------------ 
D------------------ 
A------------------ 
E------------------ 

After 'I'd even sell my soul for you' 
e--------- 
B--3--2--0 
G--------- 
D--------- 
A--------- 
E--------- 

Guitar Solo: This is an improvisation around this basic pattern, transposed 
in some parts. 

e--5--5--5--5--4--0--0--2--4--2 
B------------------------------ 
G------------------------------ 
D------------------------------ 
A------------------------------ 
E------------------------------
            
Submit corrections

↑ Back to top | Tablatures and chords for acoustic guitar and electric guitar, ukulele, drums are parodies/interpretations of the original songs. You may use it for private study, scholarship, research or language learning purposes only