Home » M » Mazzy Star »

Mazzy Star - Rhymes Of An Hour Tabs

Artists:  A B C D E F G H I J K L M N O P Q R S T U V W X Y Z # 

Rhymes Of An Hour Tabs

(ver. 1) Click to play this song!
Mazzy Star


Here is the main part played throughout the song. I
don't think it varies much, but it's a little hard to tell
with the bass droning on near the end.

-------------------------------------------------------------|----------------|
-----3-----3---3-----3-----3---3-----3-----3---3-----3----3--|----------------|
---2-----2---------2-----2---------2-----2-------------------|----------------|
-0-----0-----0---0-----0-----0---0-----0-----0--------------0|----------------|
-------------------------------------------------0h3---------|----------------|
-------------------------------------------------------0h3---|----------------|
 Below are the changes at the end. Listen for timing/how many times to play

---5-------------3-3--0----------5-----------3-3--0---------------------------|
-3-------3-3--3---------3-3--3--------3-3--3---------3-3------3-----3---------|
------------------------------------------------------------------------------|
----------------------------------------------------------------------0-------|
----------------------------------------------------------0h3-----------------|
----------------------------------------------------------------0h3-----------|
            
Submit corrections

↑ Back to top | Tablatures and chords for acoustic guitar and electric guitar, ukulele, drums are parodies/interpretations of the original songs. You may use it for private study, scholarship, research or language learning purposes only