» » »

Matt Redman - Majesty Tabs

Artists:  A B C D E F G H I J K L M N O P Q R S T U V W X Y Z # 

Majesty Tabs

(ver. 1) Click to play this song!
Matt Redman
 Rating:
4/5 (4 votes)


 Majesty lessons Tabs too difficult? Try these video lessons and learn fast
 
                                                     MAJESTY
                           As recorded by Matt Redman
                           


  Am        G         Fmaj7
 4/4
  Intro
|-------------------------------0----|
|-------1---------0-------1---1------|
|-----2---2-----0---0---2---2--------|
|---2---------2-------3--------------|
|-0----------------------------------|
|-----------3------------------------|

Verse:
   Am        G         Fmaj7       E7                     Fmaj7
   Here      I         am          Humbled by your majesty,
|--------------------------------0----------------------------------0----|
|--------1---------0-------1---1------------------------------1---1------|
|------2---2-----0---0---2---2-----------1------------------2---2--------|
|----2---------2-------3---------------0---0--------------3--------------|
|--0---------------------------------2-----------------------------------|
|------------3---------------------0-------------------------------------|


   E7                         B/F#      E7
  Cover by your grace so free               Repeat Verse (Do Same Pattern)
|----------------------------------------------------|
|-----------------------------------3----------------|
|--------1------------------------0---0-------1------|
|------0---0--------------------0-----------0---0----|
|----2------------------------------------2----------|
|--0--------------------------2---------0------------|

Pre Chorus:
   Am  G    C                           Am G  C        
   Now I’ve Found The greatest love of all is mine 
|--0---3----0---------------------------0--3--0---------------|
|--1---3----1---------------------------1--3--1---------------|
|--2---0----0---------------------------2--0--0---------------|
|--2---0----2---------------------------2--0--2---------------|
|--0---2----3---------------------------0--2--3---------------|
|--0---3----3---------------------------0--3--3---------------|


                            B/F#      E7                 F
  Since you laid down your life       the greatest sacrifice
|--------------------------------------------------------1----|
|---------------------------------3----------------------1----|
|-------------------------------0---0-------1------------2----|
|-----------------------------0-----------0---0----------3----|
|---------------------------------------2---------------------|
|---------------------------2---------0-----------------------|


Chorus:
    C     G   Am    F        C                          G       
    Majesty,  majesty your grace has found me just as I am
|---0-----3---0-----1--------0--------------------------3--|
|---1-----3---1-----1--------1--------------------------3--|
|---0-----0---2-----2--------0--------------------------0--|
|---2-----0---2-----3--------2--------------------------0--|
|---3-----2---0-----3--------2--------------------------2--|
|---3-----3---0-----1--------3--------------------------0--|

          Am                      F
  Empty handed but alive in your hands
|---------0-----------------------1-------------------|
|---------1-----------------------1-------------------|
|---------2-----------------------2-------------------|
|---------2-----------------------3-------------------|
|---------0-------------------------------------------|
|-----------------------------------------------------|

Repeat INTRO, Verse, Pre Chorus, Chorus (Do Same Pattern)

2nd Verse:
Here I am  humbled by the love that you give
forgiven so I can forgive
Here I stand  Knowing that I'm your desire Sanctified by Glory and Fire

Pre Chorus:
Now I've found the greatest love of all is mine since you Laid down your life the 
greatest sacrifice

Chorus:
Majesty  Majesty
Your grace has found me just as I am empty handed but alive in your hands

Majesty Majesty
 Forever I am changed by your love in the presence of your Majesty Majesty


God Bless to all Musicians   
            
Submit corrections



        Majesty lessons Hard to play? Try these video lessons and learn fast Majesty lessons
        
↑ Back to top | Tablatures and chords for acoustic guitar and electric guitar, ukulele, drums are parodies/interpretations of the original songs. You may use it for private study, scholarship, research or language learning purposes only