Home » M » Matt Redman »

Matt Redman - Dancing Generation Tabs

Artists:  A B C D E F G H I J K L M N O P Q R S T U V W X Y Z # 

Dancing Generation Tabs

(ver. 1) Click to play this song!
Matt Redman

[Intro]

*Bass Solo*


[Verse 1]

D - Bm - G - D (x2)


[Pre-Chorus]

e|---------------------------------------------------------------|
B|---------------------------------------------------------------|
G|9-------11------12------14------7------9------11------14-------|
D|9-(x16)-11-(x8)-12-(x4)-14-(x4)-7-(x8)-9-(x4)-11-(x4)-14-(x16)-|
A|7-------9-------10------12------5------7------9-------12-------|
E|---------------------------------------------------------------|


[Chorus]

D - Em - G - D (x2)


[Verse 2]

D - Bm
D - Bm - G - D (x2)


[Pre-Chorus]

e|--------------------------------------------------------------|
B|--------------------------------------------------------------|
G|9-------11------12------14------7------9------11------14------|
D|9(x16)--11(x8)--12(x4)--14(x4)--7(x8)--9(x4)--11(x4)--14(x16)-|
A|7-------9-------10------12------5------7------9-------12------|
E|--------------------------------------------------------------|


[Chorus]

D - Em - G - D (x2)


[Solo]

e|--------------------------------------------------------------------|
B|----------------------------------12(x8)-14(x4)-15(x4)--------------|
G|7(x12)-11(x4)-9(x8)-11(x4)-12(x4)----------------------11(x8)-9(x8)-|
D|--------------------------------------------------------------------|
A|--------------------------------------------------------------------|
E|--------------------------------------------------------------------|

e|---------------------------------------------------------------|
B|--------------10(x12)--------12(x8)-14(x4)-15(x4)--------------|
G|7(x12)-11(x4)---------11(x4)----------------------11(x8)-9(x8)-|
D|---------------------------------------------------------------|
A|---------------------------------------------------------------|
E|---------------------------------------------------------------|


[Instrumental]

*Drums Solo*


[Pre-Chorus]

e|--------------------------------------------------|
B|5(x16)-7(x8)-8(x4)-10(x4)-12(x8)-14(x4)-15(x4)-17-|
G|--------------------------------------------------|
D|--------------------------------------------------|
A|--------------------------------------------------|
E|--------------------------------------------------|


[Chorus]

e|--------------------------------------------------------------------|
B|----------------------------------12(x8)-14(x4)-15(x4)--------------|
G|7(x12)-11(x4)-9(x8)-11(x4)-12(x4)----------------------11(x8)-9(x8)-|
D|--------------------------------------------------------------------|
A|--------------------------------------------------------------------|
E|--------------------------------------------------------------------|

e|-----------------------------------------------------------------|
B|--------------10(x12)--------12(x8)-14(x4)-15(x4)----------------|
G|7(x12)-11(x4)---------11(x4)----------------------11(x8)-9(x8)-7~|
D|-----------------------------------------------------------------|
A|-----------------------------------------------------------------|
E|-----------------------------------------------------------------|            
Submit corrections

↑ Back to top | Tablatures and chords for acoustic guitar and electric guitar, ukulele, drums are parodies/interpretations of the original songs. You may use it for private study, scholarship, research or language learning purposes only