» » »

Matt Nathanson - Bottom Of The Sea Tabs

Artists:  A B C D E F G H I J K L M N O P Q R S T U V W X Y Z # 

Bottom Of The Sea Tabs

(ver. 1) Click to play this song!
Matt Nathanson
 Rating:
4.2/5 (5 votes)
                This is a tab for the fantastic, simple and beautiful song Bottom of The Sea by Matt 
Nathanson of his album Modern Love.

I've only tabbed out the different parts of the song, but its deffinatly not hard to 
figure out how many times you play each part, just listen to the song. :) I figured it out 


As always, please leave a comment or a correction (and rate. :)

Capo on the 1st fret (atleast that is what he uses live currently)

Intro:
                    (5)
                     or, not sure about that note.
e----------------5--(7)-----------------3---------|e
B----7---5---7-----------7---5---7------3---3p2---|B
G----7---7---7---7---7---7---7---7----------2-----|G
D-------------------------------------------2-----|D
A---------------------------------------2---------|A
E---------------------------------------3---------|E

Verse: "Come on down, to the bottom of the sea..."

e----2---2---3---------|e
B----3---3---3---3-----|B
G----2---2-------2-----|G
D----------------2-----|D
A------------2---------|A
E------------3---------|E

Pre-chorus: "I'm tired of getting even..."

e------------3---3---2---2-------------|e
B----3---3---3---3---3---3---2---2-----|B
G----4---4-----------2---2---2---2-----|G
D----4---4-------------------2---2-----|D
A----2---2---2---2---------------------|A
E------------3---3---------------------|E

Chorus: "I've tried my best..."

e----3---2-----------2---2-------------|e
B----3---3---3---2---3---3---2---2-----|B
G--------2---4---2-------2---2---2-----|G
D------------4---2-----------2---2-----|D
A----2-------2-------2-----------------|A
E----3---------------3-----------------|E

Post-chorus: "And now there's nothing..."

e--------------------3---------------|e
B----3---3---3---3---3---2---(let----|B
G---(4)-(4)--2---2-------2----it-----|G
D----4---4---2---2-------2----ring)---D
A----2---2---2---2---2---------------|A
E------------4---4---3---------------|E

Bridge: "If the morning light ever..."

e----------------------|e
B----5------(2)--------|B
G----6---1---2---1-----|G  x3 into the next part
D----6---2---2---2-----|D
A----4---2-------2-----|A
E----------------------|E

"Dont be gone to long..."

e----------------------|e
B---(2)-(2)-(3)-(3)----|B
G----2---2---4---4-----|G  x2 then back to intro
D----2---2---4---4-----|D
A------------2---2-----|A
E----------------------|E

End on D
            
Submit corrections

↑ Back to top | Tablatures and chords for acoustic guitar and electric guitar, ukulele, drums are parodies/interpretations of the original songs. You may use it for private study, scholarship, research or language learning purposes only