» » »

Matt Nathanson - Angel Bass

Artists:  A B C D E F G H I J K L M N O P Q R S T U V W X Y Z # 

Angel Bass

(ver. 1) Click to play this song!
Matt Nathanson
 Rating:
4.2/5 (5 votes)
                Band: matt nathanson

I know there is no bass in this song
but I thought people might to play along on bass

Intro

G|------------------|
D|------------------| 
A|------------------|
E|-3-3-3-3-3-3-3-3--|

Verse 0:04

G|------------------|
D|------------------| 
A|-------2-3-3-5-5--| x4
E|-3-3-3------------|

Chorus 0:23

G|----------------------------------|
D|----------------------------------| 
A|---------5-5-5-5-7-7-7-7-3-3-3-3--| x3
E|-3-3-3-3--------------------------|

0:42

G|------|
D|------| 
A|--235-|
E|-3----|

Verse 0:44

G|------------------|
D|------------------| 
A|-------2-3-3-5-5--| x4
E|-3-3-3------------|

Chorus 1:04

G|----------------------------------|
D|----------------------------------| 
A|---------5-5-5-5-7-7-7-7-3-3-3-3--| x3
E|-3-3-3-3--------------------------|

Ending

G|---------------|
D|---------------| 
A|--235----------|
E|-3------3~~~~~-|
            
Submit corrections

↑ Back to top | Tablatures and chords for acoustic guitar and electric guitar, ukulele, drums are parodies/interpretations of the original songs. You may use it for private study, scholarship, research or language learning purposes only