» » »

Matthews Dave Band - So Much To Say Tabs

Artists:  A B C D E F G H I J K L M N O P Q R S T U V W X Y Z # 

So Much To Say Tabs

(ver. 1) Click to play this song!
Matthews Dave Band
 Rating:
4/5 (4 votes)

 So Much To Say lessons Tabs too difficult? Try these video lessons and learn fast
 
                This is off their cd Crash.  I dont care what you do with it. I know it is right

INtro:                                                

----------------X--X--5-------------------------------------------------
----------------X--X--5-\--6--------------------------------------------
----------------X--X--5\-----------------------------------------------
-------------------------------------------7--------------------------
-0\5----------------------------------------------------8\0------------(two
times)

-----------------------X--X---5---------------------------------------------
--------------------------------------
-----------------------X--X---5-\6------------------------------------------
------------------------------------
-----------------------X--X---5---------------------------------------------
-----------------------10------------
------------------------------------------------7--------------------------5
------------------------7-----------------
------------------------------------------
----------0\5----------------------------------------------1----------------
------3\10---------------------------


---------------------------------
--------------------------------
------------------------------------------------------------7*--------------
---------------------------------
------------------------------------------------7---------------------------
-------------------------------
----X---X-------------------------5-----------------------------repeat
---------------------------------------------------
----X---X-------------3-----------------------------------------------------
--------------------------------

DO this for most of the song with slight variations.  Just listen for the
variations. 

The bridge is barre chords:A D G A ("Ill find....")


Enjoy.   "Play the guitar and play life."

GUitar is life.  You can see our band play every friday night at mellow
mushroom in Snellville Ga.  We are called The Acqueistrio
            
Submit corrections


        So Much To Say lessons Hard to play? Try these video lessons and learn fast So Much To Say lessons
        
↑ Back to top | Tablatures and chords for acoustic guitar and electric guitar, ukulele, drums are parodies/interpretations of the original songs. You may use it for private study, scholarship, research or language learning purposes only