» » »

Matthews Dave Band - Proudest Monkey Tabs

Artists:  A B C D E F G H I J K L M N O P Q R S T U V W X Y Z # 

Proudest Monkey Tabs

(ver. 1) Click to play this song!
Matthews Dave Band
 Rating:
4/5 (4 votes)

 Proudest Monkey lessons Tabs too difficult? Try these video lessons and learn fast
 
                PROPS GO TO: Craig Meaders

"Swing in this tree..."
E----------------------------------------
B----------------------------------------
G----------------------------------------
D-----6-----6-----6--------6-----6-----6-
A--------6-----4--------------6------4---
E--4-----------------4--4----------------



Tim's part:
E------------8----4-------------------- 
B------------9----6----6----9----------
G------8---------------6----8----------
D--6-----------------------------------
A--------------------------------------
E--------------------------------------


Tim's solo on Crash:
E------------------------------------------------------------
B------------------------------------------------------------
G----------8----------------------------8--10p8h10-----------
D----10---------8----6----10-6-6----8---------------11p10h11-
A--6-----6----6----6----6--------6----6----------------------
E------------------------------------------------------------

E------------------------------------------------------------
B---11---9---------------------------------------------------
G-8----8---10----8-------------------------------------------
D-------------11---8-10-------6---8-10---8p6-----10--8---6---
A-----------------------11-8----8------------6-8-------8---6-
E------------------------------------------------------------

E-------------------------------------------------------- 
B--------------------------------------------------------
G--------------------------------------------------------
D-----8--6---8----------------------------------------------
A-8-6------8-----------------------------------------------
E--------------------------------------------------------
            
Submit corrections


        Proudest Monkey lessons Hard to play? Try these video lessons and learn fast Proudest Monkey lessons
        
↑ Back to top | Tablatures and chords for acoustic guitar and electric guitar, ukulele, drums are parodies/interpretations of the original songs. You may use it for private study, scholarship, research or language learning purposes only