» » »

Matthews Dave Band - Lie In Our Graves Tabs

Artists:  A B C D E F G H I J K L M N O P Q R S T U V W X Y Z # 

Lie In Our Graves Tabs

(ver. 1) Click to play this song!
Matthews Dave Band
 Rating:
4/5 (4 votes)

 Lie In Our Graves lessons Tabs too difficult? Try these video lessons and learn fast
 
                Dave Matthews Band
	"Lie In Our Graves"
	From the album "Crash"
	Words by Dave Matthews
	Music by Dave Matthews, Carter Beauford, Stefan Lessard, Leroi 
	Moore, and Boyd Tinsley

	First off, this just is all about what Dave is known for, 
straight jammin!!  This song was kind of easy to figure out because of 
the repetition of the intro.  The rest of the song is just playing 
chords slow then fast.  I want to dedicate this song to Corey and J.D. 
who got me into Dave Matthews Band.  

Figure 1 (Intro)

------2----------------------------------
--3---3--3--------------------------0-0-0
--2---2--2--------------------2-----4-4-0  (repeat this during 1st
--0------0-------------0--2-4---4---2-2-0              verse)
-------------4--2------------------------
---------------------------------3-------
1st verse:
When I step into the light, my arms are open wide.
Oh, when I step into the light, my eyes searching wildly.
Would you not like to be sittin' on top of the world with your legs 
hangin' free?
Would you not like to be 
okay, okay, okay.

Fig. 2

-----------------------3---3---3
-------------2---------3---3---3
--4--4-4-4---2---------0---0---0  (play while the drums enter)
--2--2-2-2---2---------0---0---0
--0--0-0-0---0---------2---2---2
--3--3-3-3-------------3---3---3

When i'm walikin' by the water, splish splash, me and you takin' a bath.
Oh, when I'm walkin' by the water,  
Comes up through my toes to my ankles to my head to my soul I'm blown 
away.

Fig. 3

--3-3-3-3-3-3-3-3-------------------3-3-3----------3-3-3
--2-2-2-2-2-2-2-2--1-1-1-1-1-1-1-1--2-2-2--5--5-5--2-2-2
--3-3-3-3-3-3-3-3--2-2-2-2-2-2-2-2--3-3-3--5--5-5--3-3-3
-------------------2-2-2-2-2-2-2-2---------5--5-5--0-0-0
-------------------------------------------3--3-3-------
--------------------------------------------------------

--0---0-0-0-0-0---0-0---2---2-2-2-2-2--2-2-------------2---2-2-2--2
--1---1-1-1-1-1---1-1---3---3-3-3-3-3--3-3---5--5-5-5--3---3-3-3--3 (end
--2---2-2-2-2-2---2-2---4---4-4-4-4-4--4-4---5--5-5-5--4---4-4-4--4   of
--2---2-2-2-2-2---2-2---4---4-4-4-4-4--4-4---5--5-5-5--4---4-4-4--4  Fig
------------------------2---2-2-2-2-2--2-2---3--3-3-3--2---2-2-2--2   3)

2nd verse: repeat fig.1 4 xs

When I'm walkin' by the water, splish splash, me and you takin' a bath.
Oh, when I'm walkin' by the water it comes up through my toes to my 
anlkes to my head to my soul I'm blown away.

repeat fig.3 4x

Fig.4 (slowly than gradually speeding up than slow again)
basic chords
--3------------------2--------3----
--2---------2--------3--------3---2
--3---------2--------4--------0---2   (repeat this 17x)
------------2--------4--------0---2
---------------------2--------2----
------------------------------3----

3rd verse: Fig.1  7 and a half xs

I can't believe that we would lie in our graves wondering if we had 
spend our living days well.
I can't believe that we would lie in our graves dreaming of things that 
we might have been.
Would you not like to be?
I can't believe that you would not like to be  okay, okay, okay, okay, 
okay, okay.

	Well, that's all of this song.  If I got anything wrong please 
Dave songs.  Also I would like to say thanks and give love to my 
beautiful girlfriend, Janelle, because she is why I play guitar.  Thanks 
and enjoy!!!!!!!!!
					Tim Barnett
					11-07-97
            
Submit corrections


        Lie In Our Graves lessons Hard to play? Try these video lessons and learn fast Lie In Our Graves lessons
        
↑ Back to top | Tablatures and chords for acoustic guitar and electric guitar, ukulele, drums are parodies/interpretations of the original songs. You may use it for private study, scholarship, research or language learning purposes only