Home » M » Matt Andersen »

Matt Andersen - Devils Bride Tabs

Artists:  A B C D E F G H I J K L M N O P Q R S T U V W X Y Z # 

Devils Bride Tabs

(ver. 1) Click to play this song!
Matt Andersen
-------------------------------------------------------------------------------
                             Devils Bride- matt andersen
-------------------------------------------------------------------------------

Tuning:open D

e|--------0--0--------0--3--------5------------------------------------------|
B|--------0--0--------0--3--------5------------------------------------------|
G|--------0--0--------0--3--------5------------------------------------------|
D|--------0--0--------0--3--------5------------------------------------------|
A|--------0--0--------0--3--------5------------------------------------------|
E|--------0--0--------0--3--------5------------------------------------------|  
Verse

e|----7-----------5-----------7----------------------------------------------|
B|----7-----------5-----------7----------------------------------------------|
G|----7-----------5-----------7----------------------------------------------|
D|----7-----------5-----------7----------------------------------------------|
A|----7-----------5-----------7----------------------------------------------|
E|----7-----------5-----------7----------------------------------------------|

Bridge
just hammer off up the scale for the connecting riff
            
Submit corrections

↑ Back to top | Tablatures and chords for acoustic guitar and electric guitar, ukulele, drums are parodies/interpretations of the original songs. You may use it for private study, scholarship, research or language learning purposes only