» » »

Mattafix - Angel On My Shoulder Tabs

Artists:  A B C D E F G H I J K L M N O P Q R S T U V W X Y Z # 

Angel On My Shoulder Tabs

(ver. 1) Click to play this song!
Mattafix
 Rating:
4/5 (4 votes)

 Angel On My Shoulder lessons Tabs too difficult? Try these video lessons and learn fast
 
                Ricardo Pinto

let ring each note along the riff
use a lot of overdrive if u wanna get that overdrived note
e|---------21~~--------21~~--------------------------21^---------|\
B|---------------------------------------------------------------| \
G|------------------------------16------16-14-16-----------------|  \
D|---16--------19----------------------------------------16------|   Riff 1
A|---------------------------------------------------------------|  /
E|---------------------------------------------------------------| /
figure out timings and places where you play it


chords along the song: (delayed guitar or an acoustic one, they both sound nice)
     F#m     A      E     Bm
e|----2------5------0------2------|
B|----2------5------0------3------|
G|----2------6------1------4------|
D|----4------7------2------4------|
A|----4------7------2------2------|
E|----2------5------0-------------|

Start with Riff 1

F#m                A
You cannot be certain,
                E
you cannot be sure.
                       Bm                                  F#m
all those times that i took for granted left me wanting more.
                   A                 E                        Bm
Now that i've awoken, i'm ready to adore though my heart is broken i'm wiser 
           F#m
than before.


F#m // A // E // Bm // A
wooo woo woo wooo (x3)(each chord with overdrive and played once)
                                      F#m
Won't somebody tell me were is the love?
                      A                      E
i know when i see her face, she will soon replace the pain that i've 
        Bm
uncovered.
           F#m
Where is love? (figure out rest)
and why does it hurt so much?and will i measure up if i get to hold her?
the angel of my Shoulders


You can be disheartened, made a fool again,you cant'see the future,and who knows how this ends.
Now i hear you calling,the dance has begun,
head and heals i'm falling are you gonna be the one.
Tell dem already but we tell dem again,


tell dem already but we tell dem again,
how she left me and she gaan her way. she left me and she gaan her way.
            
Submit corrections


        Angel On My Shoulder lessons Hard to play? Try these video lessons and learn fast Angel On My Shoulder lessons
        
↑ Back to top | Tablatures and chords for acoustic guitar and electric guitar, ukulele, drums are parodies/interpretations of the original songs. You may use it for private study, scholarship, research or language learning purposes only