Home » M » Mat Kearney »

Mat Kearney - Let It Rain Tabs

Artists:  A B C D E F G H I J K L M N O P Q R S T U V W X Y Z # 

Let It Rain Tabs

(ver. 1) Click to play this song!
Mat Kearney
e|-13--13--13------10--10--10------|---------------------------------|
B|---------------------------------|-13--13--13------10--------------|
G|---------------------------------|---------------------12--10------|
D|---------------------------------|---------------------------------|
A|---------------------------------|---------------------------------|
E|---------------------------------|---------------------------------|
   1   &   2   &   3   &   4   &     1   &   2   &   3   &   4   &    
e|---------------------------------|
B|---------10----------------------|
G|-12--------------12--------------|
D|---------------------------------|
A|---------------------------------|
E|---------------------------------|
   1   &   2   &   3   &   4   &    
            
Submit corrections

↑ Back to top | Tablatures and chords for acoustic guitar and electric guitar, ukulele, drums are parodies/interpretations of the original songs. You may use it for private study, scholarship, research or language learning purposes only