» » »

Mathieu Chedid - Monde Virtuel Bass

Artists:  A B C D E F G H I J K L M N O P Q R S T U V W X Y Z # 

Monde Virtuel Bass

(ver. 1) Click to play this song!
Mathieu Chedid
 Rating:
4/5 (4 votes)

 Monde Virtuel lessons Tabs too difficult? Try these video lessons and learn fast
 
                -------------------------------------------------------------------------------
			     Monde Virtuel - M
-------------------------------------------------------------------------------


Tuning: standard

intro / outro

G|---------------------------------------------------------------------------|
D|-------------66------------------------66----------------------------------|
A|---------77------77-----------------77------77-----------------------------|
E|-10--99--------------7------10--99--------------7--------------------------|

verse 

G|---------------------------------------------------------------------------|
D|---------------------------------------------------------------------------|
A|-----7--5--------5----(5)----7--5--------5--7-(5)--------------------------|
E|--0--------7--7-----7-----0--------7--7------------------------------------|

chorus

G|------------------------------------------------------------------------------------|
D|----------66--------------44--------------------------------------------------------|
A|------77------77------55------55-----7--5--------5----(5)----7--5--------5--7-(5)---|
E|--99--------------77--------------0--------7--7-----7-----0--------7--7-----------0-|

bridge

G|--9-9-9-9--11-11-11-11--12-12--14-14----------------------------------------------------|
D|----------------------------------------------------------------------------------------|
A|--7-7-7-7--9--9--9--9---10-10--12-12-----7--5--------5----(5)----7--5--------5--7-(5)---|
E|--------------------------------------0--------7--7-----7-----0--------7--7-----------0-|


===============================================================================
            
Submit corrections


        Monde Virtuel lessons Hard to play? Try these video lessons and learn fast Monde Virtuel lessons
        
↑ Back to top | Tablatures and chords for acoustic guitar and electric guitar, ukulele, drums are parodies/interpretations of the original songs. You may use it for private study, scholarship, research or language learning purposes only