» » »

Matchbox Twenty - Ill Believe You When Bass

Artists:  A B C D E F G H I J K L M N O P Q R S T U V W X Y Z # 

Ill Believe You When Bass

(ver. 1) Click to play this song!
Matchbox Twenty
 Rating:
4/5 (4 votes)

 Ill Believe You When lessons Tabs too difficult? Try these video lessons and learn fast
 
                ----------------------------------------------------------------------
                I'LL BELIEVE YOU WHEN - Matchbox Twenty
----------------------------------------------------------------------


This is the second song off their new EP, Exile on Mainstream. It has
the most difficult bassline to play, a lot of staccatos; bends and
interesting fills. Good luck playing, I know I had a lot of difficulty
tabbing it out. Enjoy, and please rate! =)

Rest 2 bars
                                                     (Those are 11's)
G|----------------|----------------|----------------|11--9-----9-----|
D|----------------|----------------|----------------|--------11-1197-|
A|----------------|----------------|2---2---2-------|----------------|
E|5---5---5--X5---|5---0-3-5---0-3-|------------2---|----------------|
                       . .     . .
Verse

G|----------------|----------------|----------------|----------------|
D|----------------|--------------2-|----4-------4b4b|----4-----------|
A|----7-----------|--------0-2-4---|2-------2-------|2-------2-------|
E|5-------5---0-3-|5---0-3---------|----------------|------------0-3-|
              . .      . . . . . .                               . .

G|----------------|11--9-----9-----|----------------|----------------|
D|--------7-------|--------11-1197-|9---------------|----------------|
A|----7-------7---|----------------|----9---------0-|2-----0-2-------|
E|5---------------|----------------|--------7---2---|----2-----0-2-3-|
                                                . .      . . . . . .
Chorus

G|----------------|----------------|----------------|11--9-----9-----|
D|7-------7-------|7-------7-----7-|9-------9-------|--------11-1197-|
A|----7-------7---|----7-------7---|----9-------9---|----------------|
E|----------------|----------------|----------------|----------------|


G|----------------|----------------|--------------9-|11--9-----9-----|
D|----------------|--------------2-|----4-------11--|--------11-1197-|
A|----7-----------|--------0-2-4---|2-------2-------|----------------|
E|5-------5---0-3-|5---0-3---------|----------------|----------------|
              . .      . . . . . .
Pre-Verse

G|----------------|----------------|--------------9-|11--9-----9-----|
D|----------------|--------------2-|----4-------11--|--------11-1197-|
A|----7-----------|--------0-2-4---|2-------2-------|----------------|
E|5-------5---0-3-|5---0-3---------|----------------|----------------|
              . .      . . . . . .
Verse

G|----------------|----------------|----------------|----------------|
D|----------------|--------------2-|----4-------4---|----4-----------|
A|----7-----------|--------0-2-4---|2-------2-------|2-------2-------|
E|5-------5---0-3-|5---0-3---------|----------------|------------0-3-|
              . .      . . . . . .                               . .

G|----------------|----------9-----|----------------|----------------|
D|----------------|--------11-1197-|9-------9-------|9-------9-------|
A|----7-------7---|----7-----------|----9-------9---|----9-----------|
E|5-------5-------|5---------------|----------------|----------0-2-3-|
                                                               . . .
Chorus

G|----------------|----------9-----|----------------|----------------|
D|7-------7-------|7-------11-1197-|9---------------|9-------9-------|
A|----7-----------|----7-----------|----9-----------|----9-----------|
E|------------0-3-|----------------|--------7---0-3-|------------0-3-|
              . .                               . .              . .

G|----------------|--119-11--9-----|----------------|----------------|
D|7-------7------/|11------11-1197-|9---------------|----------------|
A|----7-------7---|----------------|----9-----------|2---2---2---0-2-|
E|----------------|----------------|--------7---0-3-|----------------|
                                                . .
Bridge

G|----------------|----------------|----------------|----------------|
D|----------------|----------------|----------------|----------------|
A|----------------|--------------0-|2-------2-------|2-2-----2-2-0-0-|
E|3-3-3-3-3-3-3-3-|3-3-3-3-3-3-3---|----2-------2---|----2-2---------|
                                                     . . . . . . . .

G|----------------|----------------|----------------|----------------|
D|----------------|----------------|----------------|--------------2-|
A|----------------|----------------|----7-----------|--------0-2-4---|
E|3-3-3-3-3-3-3-3-|3-3-3-3-3-3-2-0-|5-------5---0-3-|5---0-3---------|
                                                . .      . . . . . .

G|--------------9-|11--9-----9-----|----------------|----------------|
D|------------11--|--------11-1197-|----------------|--------------2-|
A|2-------2-------|----------------|----7-----------|--------0-2-4---|
E|----2b2b--------|----------------|5-------5---0-3-|5---0-3---------|
                                                . .      . . . . . .

G|----------------|----------------|
D|------------4-4-|----------------|
A|2-------2-------|2-2-------------|
E|----2b2b--------|----0-0-2-2-3-3-|

Chorus

G|----------------|----------9-----|----------------|----------------|
D|----------------|--------11-1197-|9---------------|----------------|
A|----7~----------|----7~----------|----9-----------|2-------2-------|
E|5~------------3-|5~--------------|--------7---2b2b|----2-----0-2-3-|


G|----------------|11--9-----9-----|----------------|----------------|
D|7-------7---2/--|--------11-1197-|----------------|----------------|
A|----7-----------|----------------|2-------2-------|2-2-------------|
E|----------------|----------------|----2-------2b2b|----0-0-2-2-3-3-|


G|----------------|X-9-119---------|----------------|------------9---|
D|7-------7-------|--------119-7-6-|9-------9---X-7-|9---11--12------|
A|----7-------7---|----------------|----9-----------|----------------|
E|----------------|----------------|----------------|----------------|

Outro

G|----------------|----------------|----------------|----------------|
D|----------------|----------------|----------------|----------------|
A|----4-4-7-7-4-4-|----4-4-7-7-5-4-|2-2-----2-2-4-4-|2-2-----2-2-4-2-|
E|5-5-------------|5-5-------------|----2-2---------|----2-2---------|
  . . . . . . . .  . . . . . . . .  . . . . . . . .  . . . . . . . .

G|----------------|----------------|----------------|----------------|
D|----------------|----------------|----4b4b----4b4b|----------------|
A|----7b7b----7b7b|----7b7b--------|2-------2-------|2---------------|
E|5-------5-------|5-------5-0-5-0-|----------------|----0-0-2-2-3-3-|


G|----------------|----------------|----------------|----------------|
D|----------------|----------------|----4b4b----4b4b|----4b4b--------|
A|----7b7b----7b7b|----7b7b--------|2-------2-------|2-------2-------|
E|5-------5-------|5-------5-0-5-0-|----------------|----------0-2-3-|


G|----------------|
D|----------------|
A|----------------|
E|5~--------------|


| /  slide up
| \  slide down
| h  hammer-on
| p  pull-off
| ~  hold note
| +  harmonic
| x  mute note
| .  staccato note
| b  bend note
======================================================================
            
Submit corrections


        Ill Believe You When lessons Hard to play? Try these video lessons and learn fast Ill Believe You When lessons
        
↑ Back to top | Tablatures and chords for acoustic guitar and electric guitar, ukulele, drums are parodies/interpretations of the original songs. You may use it for private study, scholarship, research or language learning purposes only