» » »

Matchbox Twenty - Back 2 Good Bass

Artists:  A B C D E F G H I J K L M N O P Q R S T U V W X Y Z # 

Back 2 Good Bass

(ver. 1) Click to play this song!
Matchbox Twenty
 Rating:
4/5 (4 votes)

 Back 2 Good lessons Tabs too difficult? Try these video lessons and learn fast
 
                G:-------------------------------------------------------------------
D:-------------------------------------------------------------------
A:--5-3----5-3----5-3----5-3----5-3----5-3----5-3----5-3-------------
E:-------3------3------3------3------3------3------3------3----------

G:-------------------------------------------------------------------
D:-------------------------------------------------------------------
A:-----3-2-0------3-2-------5-3----5-3----5-3----5-3----5-3----5-3
E:--3--------3--------3----------3------3------3------3------3------3

G:-------------------------------------------------------------------
D:-------------------------------------------------------------------
A:-----3-2-0------3-2-------5-3----5-3----------------0--0-0--0------
E:--3--------3--------3----------3------3---3--3-3--3----------------

G:-------------------------------------------------------------------
D:-------------------------------------------------------------------
A:--5--5-5--5-------------------0--5-4-2---2-2--2-2--2--0------------
E:------------3--3-3--0-3--3-3-----------------------------3---------

G:-------------------------------------------------------------------
D:-------------------------------------------------------------------
A:-------0--0-0--0--5---------------------------------3-0----5-3-----
E:--3-3------------------3--------0/3-------0/3-------------------3--

G:-------------------------------------------------------------------
D:-------------------------------------------------------------------
A:--5-3----5-3----5-3----5-3----5-3----5-3----5-3----------3-2-0-----
E:-------3------3------3------3------3------3------3----3---------3--

G:-------------------------------------------------------------------
D:-------------------------------------------------------------------
A:--3-2----5-3----5-3----5-3----5-3----5-3--------3-2-0------3-2-----
E:------3------3------3------3------3------3----3-------3---------3--

G:-------------------------------------------------------------------
D:-------------------------------------------------------------------
A:--5-3----5-3------------0--0-0--0-5--5-5--5------------------------
E:------3------3-3--3-3--3--------------------3--3-3--3-0-3--3-3--3--

G:-------------------------------------------------------------------
D:------------------------------------------------1-7-5--------------
A:--0--5-4-2--2-2--2-2--2-0-----------0--0-0--0-5--------------------
E:--------------------------3--3-3--3-------------------------0/3----

G:-------------------------------------------------------------------
D:-------------------------------------------------------------------
A:---------3-0----5-3----5-3----5-3----5-3---------------------------
E:--0/3---------------3------3------3------3--3-2-0--0-0-0-0-0-0-0-0-

G:-----------------------------------0-0-0-0-0-0-0-0-----------------
D:-------------------------------------------------------------------
A:--0-0-0-0-0-0-0-0--5-5-5-5-5-5-5-5---------------------------------
E:---------------------------------------------------0-2-3--3-3-3-3-3

G:-----------------------------------------------------2-0-----------
D:---------------------------------------------------------4--2-2-2-2
A:--------0-0-0-0-0-0-0-0--5-5-5-5-5-5-5-5-5-5-5-5-5-5---------------
E:--3-3-3------------------------------------------------------------

G:---------------------------------------------0-2--0-0-0-0-0-0-0-0--
D:--2-2-2-2-----------------------------------2----------------------
A:----------0-0-0-0-0-0-0-0--5-5-5-5-5-5-5-5-------------------------
E:-------------------------------------------------------------------

G:--2-0--------------------------------------2-0---------------------
D:-----2-----------------------------------------2-------------------
A:------2-0---------------------------------------2-0----------------
E:----------3--3-3-3-3-3-3-3-3-3-3-3-3-3-3-3----------3--------------

G:-------------------------------------------------------------------
D:-------------------------------------------------------------------
A:--5-3---5-3----5-3----5-3---------------------0-0-0-0-0-0-0-0------
E:------3------3------3------3--3-3-3-3-3-3-3-3----------------------

G:-------------------------------------------------------------------
D:-------------------------------------------------------------------
A:--5-5-5-5-5-5-5-5-----------------------------------0-0-0-0-0-0-0-0
E:------------------3-3-3-3-3-3-3-3--0-3-3-3-3-3-3-3-3---------------

G:-------------------------7-6-4-2-----------------------------------
D:--------------------------------1-0--------------------------------
A:--5-4-2--2-2-2-2-2-2-2-2---------------------------0-0-0-0-0-0-0-0-
E:------------------------------------3-3-3-3-3-3-3-3----------------

G:-------------------------------------------------------------------
D:-------------------------------------------------------------------
A:--5-5-5-5-5-5-5-5---------------------------------------3-0--------
E:------------------3-----------0/3--------0/3--5-3-0-3-3------------

G:-------------------------------------------------------------------
D:-------------------------------------------------------------------
A:--5-3----5-3----5-3----5-3----5-3----5-3----5-3--------------------
E:------3------3------3------3------3------3------3------------------
End on this note........
G:------
D:------
A:--5---
E:------

I recommend playing along with the song the first time you play it to 
understand everything with the song.
Good song. Enjoy!
            
Submit corrections


        Back 2 Good lessons Hard to play? Try these video lessons and learn fast Back 2 Good lessons
        
↑ Back to top | Tablatures and chords for acoustic guitar and electric guitar, ukulele, drums are parodies/interpretations of the original songs. You may use it for private study, scholarship, research or language learning purposes only