» » »

Matchbook Romance - Farewell To Friends Tabs

Artists:  A B C D E F G H I J K L M N O P Q R S T U V W X Y Z # 

Farewell To Friends Tabs

(ver. 1) Click to play this song!
Matchbook Romance
 Rating:
4/5 (4 votes)


 Farewell To Friends lessons Tabs too difficult? Try these video lessons and learn fast
 
                Matchbook Romance
"Farewell to Friends"

standard tuning

(into) guitar 1
---666-66-6666/8888/666-66-6666/8888/666-66-6666/8888/666-66-66/88888888/666-66-66/
---444-44-4444/6666/444-44-4444/6666/444-44-4444/6666/444-44-44/66666666/444-44-44/

(intro cont'd)
---/8888/10101010-6666-66-66/8888/10101010-666-66-66/8888/10101010-666-66-66/88888888
---/6666/-8-8-8-8-4444-44-44/6666/-8-8-8-8-444-44-44/6666/-8-8-8-8-444-44-44/66666666

(verse)
---6-(let ring)--3-(let ring)------------------------------6-66666666-33333333-------
---6-------------3-------------4-(let ring)--6-(let ring)--6-66666666-33333333-444444
---4-------------1-------------4-------------6-------------4-44444444-11111111-444444
-------------------------------2-------------4---------------------------------222222
                                                             pm......................

---------------6-66666-66666--3-33333-33333--------------------------------6-66666-66
44-6-6-66666---6-66666-66666--3-33333-33333--4-44444-44444--6-66666-66666--6-66666-66
44-6-6-66666---4-44444-44444--1-11111-11111--4-44444-44444--6-66666-66666--4-44444-44
22-4-4-44444---------------------------------2-22222-22222--4-44444-44444------------
......

----------------------------------------------------
----------------------------------------------------
666--3-33333-33333----------------------------------
666--3-33333-33333--4-44444-44444--6666-66-6666-6---
444--1-11111-11111--4-44444-44444--6666-66-6666-6---
--------------------2-22222-22222--4444-44-4444-4---
                                   pm..    pm..

(chorus x2)
---3-33333-333333----------------------------------6-66666-666-----------------------
---3-33333-333333--6-66666-666666--4-44444-444444--6-66666-666---6666-6666-----------
---1-11111-111111--6-66666-666666--4-44444-444444--4-44444-444---6666-6666-----------
-------------------4-44444-444444--2-22222-222222----------------4444-4444-----------
                                                                 pm.....

after 2nd part of chorus
-------------------------------
-------------------------------
-------------------------------
---4-44444-4--6-(let ring)-----
---4-44444-4--6----------------
---2-22222-2--4----------------

intro again
verse
chorus


That's all I've got worked out right now, this is just for 1 guitar part, I'll work out the lead parts soon and update this tab with them as soon as I have it figured out.  Until then, this is all I have.  I believe it's pretty accurate, some of it might sound like I have a lil' more, but it sounded good while I was playing along with it, so Rock On!! Matchbook Romance rocks!!!
            
Submit corrections



        Farewell To Friends lessons Hard to play? Try these video lessons and learn fast Farewell To Friends lessons
        
↑ Back to top | Tablatures and chords for acoustic guitar and electric guitar, ukulele, drums are parodies/interpretations of the original songs. You may use it for private study, scholarship, research or language learning purposes only