Home » M » Mastodon »

Mastodon - The Motherload Tabs

Artists:  A B C D E F G H I J K L M N O P Q R S T U V W X Y Z # 

The Motherload Tabs

(ver. 1) Click to play this song!
Mastodon
Tuning: D standard, drop C

INTRO, VERSE
[gtr1+2]
d|--------------------------------------------------------|
A|--------------------------------------------------------|
F|--------------------------------------------------------|
C|---------------------------------------------------14---|
G|-----------12--------------------------12----12-15------|
C|-0---12h15-----15-12-10-12---0---12h15----15------------|

d|-------------------------------------------0---|
A|-----------------------------------------------|
F|----------------------------------------7------|
C|-----------------------------------------------|
G|-----------12-----------------------8----------|
C|-0---12h15-----15-12-10-12-7---8-10------------|

d|--------------------------------------------------------|
A|--------------------------------------------------------|
F|--------------------------------------------------------|
C|---------------------------------------------------14---|
G|-----------12--------------------------12----12-15------|
C|-0---12h15-----15-12-10-12---0---12h15----15------------|
                              END1
d|---------------------------|--------------0------|
A|---------------------------|---------------------|
F|---------------------------|-----------------7---|
C|---------------------------|---------------------|
G|-----------12--------------|----------8----------|
C|-0---12h15-----15-12-10-12-|-7---8-10------------|

END2
d|--------------------|
A|--------------------|
F|--------------------|
C|-7---7-7-10---5-10--|
G|-7---7-7-10---5-10--|
C|-7---7-7-10---5-10--|

CHORUS
[gtr1+2]
d|---------------0-------------------0------------------------------------|
A|--------------10------------------10------------------------------------|
F|--------------10------------------10----10--1010--1010--12--1212-1212---|
C|--0--10-12-0---------0---10-12-0---------8---8-8---8-8--10--1010-1010---|
G|--0--10-12-0---------0---10-12-0---------8---8-8---8-8--10--1010-1010---|
C|--0--10-12-0---------0---10-12-0---------8---8-8---8-8--10--1010-1010---|

d|---------------0------------------0-------------------------------------|
A|--------------10-----------------10-------------------------------------|
F|--------------10-----------------10-----7---7-7---7-7---5---5-5--1212---|
C|--0--10-12-0---------0--10-12-0---------5---5-5---5-5---3---3-3--1010---|
G|--0--10-12-0---------0--10-12-0---------5---5-5---5-5---3---3-3--1010---|
C|--0--10-12-0---------0--10-12-0---------5---5-5---5-5---3---3-3--1010---|


BRIDGE
[gtr1+2]
d|-------------------------------------|
A|-11--1010--1010---8---6-6-6---8-13---|
F|-10---9-9---9-9---7---5-5-5---7-12---|
C|--8---7-7---7-7---5---3-0-3---5-10---|
G|--8---7-7---7-7---5---3-0-3---5-10---|
C|--8---7-7---7-7---5---3-0-3---5-10---|

END (2nd bridge)
d|-------------------------------------|
A|-11--1010--1010---6---6-613---1313---|
F|-10---9-9---9-9---5---5-512---1212---|
C|--8---7-7---7-7---3---3-310---1010---|
G|--8---7-7---7-7---3---3-310---1010---|
C|--8---7-7---7-7---3---3-310---1010---|

INTERLUDE
[gtr1]
d|--------------------------------------------------------------------|
A|--------8-----7-----------8-----7--------13----12------------10-----|
F|----------9-----9-----------9-----9--------14----14------12----12---| x 2
C|------9---------------9----------------14--------------12--------12-|
G|--7---------7-----7-----------7----12--------12----10------10-------|
C|--------------------------------------------------------------------|

d|--------------------------------------------0---------------------|
A|------------0---------------0-----------6-----6---------5-----3---|
F|--------5-----5---------5-----5-----------7-----7-----5-----4-----|
C|------7---7-----7-----7---5-----7-----7---------------------------|
G|--0---------------8---------------5---------------3-------2-------|
C|------------------------------------------------------------------|

d|----------------------------0---------------0-------------0-------|
A|------------0-----------6-----6---------5-----5-------3-----3-----|
F|--------5-----5-----------7-----7-----5---------5---4---------4---|
C|------7---7-----7-----7-------------------------------------------|
G|--0---------------5---------------3-------3-------2-----2---------|
C|------------------------------------------------------------------|


d|------------0---------------0-------------0---------------0-------|
A|--------6-----6---------6-----6---------0---0-----------0---0-----|
F|------7---------7-----7---------7-----6-------0-------6-------0---| x 4
C|------------------------------------7-----------7---7-----------7-|
G|------------------------------------------------------------------|
C|--8-------8-------5-------5-------7---------------7---------------|

PRE-SOLO
[gtr1] During solo, also.
d|------------------------------------------------------------------|
A|------------------------------------------------------------------|
F|-10--1010--1010---7---7-7---7-7---9---9-9---9-9---9---9-9---9-9---| x 6
C|--8---8-8---8-8---5---5-5---5-5---7---7-7---7-7---7---7-7---7-7---|
G|--8---8-8---8-8---5---5-5---5-5---7---7-7---7-7---7---7-7---7-7---|
C|--8---8-8---8-8---5---5-5---5-5---7---7-7---7-7---7---7-7---7-7---|

[gtr2]
d|--8-8-8-8-8-6-6-6-5-5-5-5-5---------------------------------------|
A|----------------------------8-8-8-5-5-5-5-5-5-5-5-5-5-5-5-5-5-5-5-|
F|------------------------------------------------------------------| x 3
C|------------------------------------------------------------------|
G|------------------------------------------------------------------|
C|------------------------------------------------------------------|

[gtr3]
d|------------------------------------------------------------------|
A|------------------------------------------------------------------|
F|-1010101010101010-9-9-9-9-9-9-9-9-6-6-6-6-6-6-6-6-7-7-7-7-7-7-7-7-| x 2
C|--x-x-x-x-x-x-x-x-x-x-x-x-x-x-x-x-x-x-x-x-x-x-x-x-x-x-x-x-x-x-x-x-|
G|--8-8-8-8-8-8-8-8-7-7-7-7-7-7-7-7-4-4-4-4-4-4-4-4-5-5-5-5-5-5-5-5-|
C|------------------------------------------------------------------|

d|------------------------------------------------------------------|
A|------------------------------------------------------------------|
F|--9b10101010101010101010101010101010101010br9-9-9-9-9-9-9-9-9-9-9-|
C|--x--x-x-x-x-x-x-x-x-x-x-x-x-x-x-x-x-x-x-x--x-x-x-x-x-x-x-x-x-x-x-|
G|--7b-8-8-8-8-8-8-8-8-8-8-8-8-8-8-8-8-8-8-8br7-7-7-7-7-7-7-7-7-7-7-|
C|------------------------------------------------------------------|


SONG STRUCTURE

INTRO with END1
VERSE x 2 with END2
CHORUS x 2
BRIDGE x 4
INTRO/VERSE with END2
VERSE x 2 (2nd time with END2)
CHORUS x 2
BRIDGE x 3 + END
INTERLUDE [gtr2] plays some high and long notes
PRE-SOLO/SOLO
CHORUS x 2
BRIDGE x 4
            
Submit corrections

↑ Back to top | Tablatures and chords for acoustic guitar and electric guitar, ukulele, drums are parodies/interpretations of the original songs. You may use it for private study, scholarship, research or language learning purposes only