» » »

Mastodon - Precious Stones Tabs

Artists:  A B C D E F G H I J K L M N O P Q R S T U V W X Y Z # 

Precious Stones Tabs

(ver. 1) Click to play this song!
Mastodon
 Rating:
4.3/5 (21 vote)
                [Intro]
D||---------------------------|----------------------------|
A||---------------------------|----------------------------|
F||o--------------------------|--------------------14------|
C||o--------------------------|-----------------15----15---|
G||----------12-13-12---------|-----------12-13------------|
C||-0-----13----------13------|--0-----13------------------|


D|----------------------------|---------------------------|||
A|----------------------------|---------------------------|||
F|----------------------------|-----------------10----10-o|||
C|----------------------------|--------------------14----o|||
G|-----------12-13-12---------|-----------12-13-----------|||
C|--0-----13----------13------|--0-----13-----------------|||

[Verse]
D|---------------------------|----------------------------|
A|---------------------------|----------------------------|
F|o6-----6--7--7--7--6-------|--6--7--7--7--6-----6--6----|
C|o6-----6--6--6--6--6-------|--6--6--6--6--6-----6--6----|
G|-4-----4--4--4--4--4-------|--4--4--4--4--4-----4--4----|
C|---------------------------|----------------------------|


D|----------------------------|---------------------------||
A|----------------------------|---------------------------||
F|--2-----2--2-----2--2--2----|--7-----7--7-----7--7--7--o||
C|--2-----2--2-----2--2--2----|--7-----7--7-----7--7--7--o||
G|--0-----0--0-----0--0--0----|--5-----5--5-----5--5--5---||
C|----------------------------|---------------------------||

[Pre-Chorus]
D|-----------------0----------|-----------------0----------|
A|----------------------------|----------------------------|
F|-----------7--9-----9-------|-----------7--9-----9-------|
C|--6-----6-------------------|--6-----6-------------------|
G|--6-----6-------------------|--6-----6-------------------|
C|--6-----6-------------------|--6-----6-------------------|


D|-----------------0----------|-----------------0----------||
A|----------------------------|----------------------------||
F|-----------11-12------------|-----------11-12------------||
C|--10----10----------13------|--10----10----------13------||
G|--10----10------------------|--10----10------------------||
C|--10----10------------------|--10----10------------------||

[Chorus]
D|---------------------------|----------------------------|
A|---------------------------|----------------------------|
F|o--------------------------|----------------------------|
C|o2-----2--4--4--4--2-------|--2--4--4--4--2-----2--2----|
G|-2-----2--2--2--2--2-------|--2--2--2--2--2-----2--2----|
C|-2-----2--2--2--2--2-------|--2--2--2--2--2-----2--2----|


D|----------------------------|--------------------0--0---|||
A|----------------------------|---------------------------|||
F|----------------------------|--------------------------o|||
C|--6-----6--8--8--8--6-------|--6--8--8--8--8--9--9--9--o|||
G|--6-----6--6--6--6--6-------|--6--6--6--6---------------|||
C|--6-----6--6--6--6--6-------|--6--6--6--6---------------|||

[Bridge]
D|---------------------------|----------------------------|
A|---------------------------|--------------------10-12---|
F|o--------------------------|-----------------7----------|
C|o---------10----9--7--5----|-----------7----------------|
G|-0-----7-----7-------------|--------5-----5-------------|
C|---------------------------|--5-------------------------|


D|----------------------------|---------------------------||
A|----------------------------|---------------------------||
F|----------------------------|--7-----------------------o||
C|-----------10----9--7--5----|--------10-9--7--9--10-9--o||
G|--0-----7-----7-------------|---------------------------||
C|----------------------------|---------------------------||


D|----------------------------|-----------------0-----0----|
A|----------------------------|--------------------0-------|
F|----------------------------|----------------------------|
C|-----------9--10-9----------|-----------9----------------|
G|--0-----7-----------7-------|--0-----7-----7-------------|
C|----------------------------|----------------------------|


D|----------------------------|-----------------0-----0----||
A|----------------------------|--------------------0-------||
F|----------------------------|----------------------------||
C|-----------9--10-9----------|-----------9----------------||
G|--0-----7-----------7-------|--0-----7-----7-------------||
C|----------------------------|----------------------------||


D|---------------------------|----------------------------|
A|---------------------------|--------------------10-12---|
F|o--------------------------|-----------------7----------|
C|o---------10----9--7--5----|-----------7----------------|
G|-0-----7-----7-------------|--------5-----5-------------|
C|---------------------------|--5-------------------------|


D|----------------------------|---------------------------|||
A|----------------------------|---------------------------|||
F|----------------------------|--7-----------------------o|||
C|-----------10----9--7--5----|--------10-9--7--9--10-9--o|||
G|--0-----7-----7-------------|---------------------------|||
C|----------------------------|---------------------------|||

[Pre-Chorus]
D|----------------0----------|-----------------0----------|
A|---------------------------|----------------------------|
F|o---------7--9-----9-------|-----------7--9-----9-------|
C|o6-----6-------------------|--6-----6-------------------|
G|-6-----6-------------------|--6-----6-------------------|
C|-6-----6-------------------|--6-----6-------------------|


D|-----------------0----------|-----------------0---------|||
A|----------------------------|---------------------------|||
F|-----------11-12------------|-----------11-12----------o|||
C|--10----10----------13------|--10----10----------13----o|||
G|--10----10------------------|--10----10-----------------|||
C|--10----10------------------|--10----10-----------------|||

[Verse]
D|---------------------------|----------------------------|
A|---------------------------|----------------------------|
F|o6-----6--7--7--7--6-------|--6--7--7--7--6-----6--6----|
C|o6-----6--6--6--6--6-------|--6--6--6--6--6-----6--6----|
G|-4-----4--4--4--4--4-------|--4--4--4--4--4-----4--4----|
C|---------------------------|----------------------------|


D|----------------------------|---------------------------|||
A|----------------------------|---------------------------|||
F|--2-----2--2-----2--2--2----|--7-----7--7-----7--7--7--o|||
C|--2-----2--2-----2--2--2----|--7-----7--7-----7--7--7--o|||
G|--0-----0--0-----0--0--0----|--5-----5--5-----5--5--5---|||
C|----------------------------|---------------------------|||

[Outro Solo]
D|---------------------------|----------------------------|
A|---------------------------|----------------------------|
F|o--------------------------|----------------------------|
C|o6-----6--6-----6--6--6----|--2-----2--2-----2--2--2----|
G|-6-----6--6-----6--6--6----|--2-----2--2-----2--2--2----|
C|-6-----6--6-----6--6--6----|--2-----2--2-----2--2--2----|


D|----------------------------|----------------------------|
A|----------------------------|----------------------------|
F|--5-----5--5-----5--5--5----|--5-----5--5-----5--5--5----|
C|--5-----5--5-----5--5--5----|--5-----5--5-----5--5--5----|
G|--3-----3--3-----3--3--3----|--3-----3--3-----3--3--3----|
C|----------------------------|----------------------------|


D|----------------------------|----------------------------|
A|----------------------------|----------------------------|
F|----------------------------|----------------------------|
C|--6-----6--6-----6--6--6----|--2-----2--2-----2--2--2----|
G|--6-----6--6-----6--6--6----|--2-----2--2-----2--2--2----|
C|--6-----6--6-----6--6--6----|--2-----2--2-----2--2--2----|


D|----------------------------|---------------------------||
A|----------------------------|---------------------------||
F|--5-----5--5-----5--5--5----|--9-----9--9-----9--9--9--o||
C|--5-----5--5-----5--5--5----|--9-----9--9-----9--9--9--o||
G|--3-----3--3-----3--3--3----|--7-----7--7-----7--7--7---||
C|----------------------------|---------------------------||

[Intro Re-Visit]
D|----------------------------|----------------------------|----------------||
A|----------------------------|----------------------------|----------------||
F|----------------------------|--------------------14------|----------------||
C|----------------------------|-----------------15----15---|----------------||
G|-----------12-13-12---------|-----------12-13------------|--0-------------||
C|--0-----13----------13------|--0-----13------------------|--0-------------||

            
Submit corrections

↑ Back to top | Tablatures and chords for acoustic guitar and electric guitar, ukulele, drums are parodies/interpretations of the original songs. You may use it for private study, scholarship, research or language learning purposes only