Home » M » Mastodon »

Mastodon - Bedazzled Fingernails Tabs

Artists:  A B C D E F G H I J K L M N O P Q R S T U V W X Y Z # 

Bedazzled Fingernails Tabs

(ver. 1) Click to play this song!
Mastodon
[Main Riff]
D|-----------------------------------------------------------------------------------------------|
A|-----------------------------------------------------------------------------------------------|
F|-----------------------------------------------------------------------------------------------|
C|-0h4---5p0---------------0h4---5p0---------------0h4---5p0---------------0h4---5p0-------------|
G|-------------0h2---5p2---------------0h2---5p2---------------0h2---5p2---------------0h2---5h2-|
D|-----0-----0-----0-----------0-----0-----0-----------0-----0-----0-----------0-----0-----0-----|

D|--------------------------------------------------------------------------------------------|
A|--------------------------------------------------------------------------------------------|
F|--------------------------------------------------------------------------------------------|
C|-4-5p0----------------0h4---5p0---------------0h4---5p0---------------0h4---5p0-------------|
G|----------0h2---5p2---------------0h2---5p2---------------0h2---5p2---------------0h2-------|
D|-------0------0-----------0-----0-----0-----------0-----0-----0-----------0-----0-----0-----|

D|--------------------------------------------------|
A|--------------------------------------------------|
F|--------------------------------------------------|
C|--------------------------------------------------|
G|-5p2---0h2---5p2---0h2---5p2---0h2---5p2---0h2----|
D|-----0-----0-----0-----0-----0-----0-----0-----0--|

Play All Of The Above Twice (Once For The Intro, Once For The Verse)

[Chorus]
D|--------------------------------------------------|
A|--------------------------------------------------|
F|--------------------------------------------------|
C|--------------------------------------------------|
G|-5p2---0h2---5p2---0h2---5p2---0h2---5p2---0h2----|
D|-----0-----0-----0-----0-----0-----0-----0-----0--|

D|-----------------------------------------------|
A|-----------------------------------------------|
F|-----------------------------------------------|
C|-5p0---------5p0---------5p0---------5p0-------|
G|-------0h2---------0h2---------0h2---------0h2-|
D|-----0-----0-----0-----0-----0-----0-----0-----|

D|----------------------------------------------------------------|
A|------------------------------------------------------------------|
F|------------------------------------------------------------------|
C|-7p0-------------7p0-------------7p0-------------7p0--------------|
G|---------7p0-------------7p0-------------7p0--------------7h0-----|
D|------0-------0-------0-------0-------0-------0-------0-----------|

D|---------------------------------------------------------------|
A|-7p0-------------7p0-------------7p0-------------7p0-----------|
F|---------------------------------------------------------------| (x2)
C|---------7h9-------------7h9-------------7h9--------------7h9--|
G|---------------------------------------------------------------|
D|------0-------0-------0-------0-------0-------0-------0--------|

[Post-Chorus]
D|--------------------------------------------------|
A|--------------------------------------------------|
F|--------------------------------------------------|
C|--------------------------------------------------|
G|-14-14-14-14--14-14-14-14--14-14-14-14--11-11-11--|
D|-12--0--0-12--12--0--0-12--12--0--0-12--13-13-13--|

D|-------------------------------------------------------------|
A|-------------------------------------------------------------|
F|-------------------------------------------------------------|
C|-------------------------------------------12----------------| (x2)
G|-14-14-14-14--14-14-14-14------------12-14----14-12----------|
D|-12--0--0-12--12--0--0-12--0---12-14----------------0-14-12--|

Guitar 1:                            Guitar 2:
D|----------------------|           |----------------------------------|
A|----------------------|           |----------------------------------|
F|----------------------|           |----------------------------------|
C|----------------------|           |----------------/--------------/--|     (x2)
G|-5-4--5-8---8-7--8-11-|           |---------------/--------------/---|
D|-3-2--3-6---6-5--6-9--|           |--------------/--------------/----|
                                                 ^Pick Scr*pes^

D|--------------------------------------------------|
A|--------------------------------------------------|
F|--------------------------------------------------|
C|--------------------------------------------------|
G|-14-14-14-14--14-14-14-14--14-14-14-14--11-11-11--|
D|-12--0--0-12--12--0--0-12--12--0--0-12--13-13-13--|

D|-------------------------------------------------------------|
A|-------------------------------------------------------------|
F|-------------------------------------------------------------|
C|-------------------------------------------12----------------| (x2)
G|-14-14-14-14--14-14-14-14------------12-14----14-12----------|
D|-12--0--0-12--12--0--0-12--0---12-14----------------0-14-12--|

[Verse 2]
D|-----------------------------------------------------------------------------------------------|
A|-----------------------------------------------------------------------------------------------|
F|-----------------------------------------------------------------------------------------------|
C|-0h4---5p0---------------0h4---5p0---------------0h4---5p0---------------0h4---5p0-------------|
G|-------------0h2---5p2---------------0h2---5p2---------------0h2---5p2---------------0h2---5h2-|
D|-----0-----0-----0-----------0-----0-----0-----------0-----0-----0-----------0-----0-----0-----|

D|--------------------------------------------------------------------------------------------|
A|--------------------------------------------------------------------------------------------|
F|--------------------------------------------------------------------------------------------|
C|-4-5p0----------------0h4---5p0---------------0h4---5p0---------------0h4---5p0-------------|
G|----------0h2---5p2---------------0h2---5p2---------------0h2---5p2---------------0h2-------|
D|-------0------0-----------0-----0-----0-----------0-----0-----0-----------0-----0-----0-----|

D|--------------------------------------------------|
A|--------------------------------------------------|
F|--------------------------------------------------|
C|--------------------------------------------------|
G|-5p2---0h2---5p2---0h2---5p2---0h2---5p2---0h2----|
D|-----0-----0-----0-----0-----0-----0-----0-----0--|

[Chorus 2]
D|--------------------------------------------------|
A|--------------------------------------------------|
F|--------------------------------------------------|
C|--------------------------------------------------|
G|-5p2---0h2---5p2---0h2---5p2---0h2---5p2---0h2----|
D|-----0-----0-----0-----0-----0-----0-----0-----0--|

D|-----------------------------------------------|
A|-----------------------------------------------|
F|-----------------------------------------------|
C|-5p0---------5p0---------5p0---------5p0-------|
G|-------0h2---------0h2---------0h2---------0h2-|
D|-----0-----0-----0-----0-----0-----0-----0-----|

D|----------------------------------------------------------------|
A|------------------------------------------------------------------|
F|------------------------------------------------------------------|
C|-7p0-------------7p0-------------7p0-------------7p0--------------|
G|---------7p0-------------7p0-------------7p0--------------7h0-----|
D|------0-------0-------0-------0-------0-------0-------0-----------|

D|---------------------------------------------------------------|
A|-7p0-------------7p0-------------7p0-------------7p0-----------|
F|---------------------------------------------------------------| (x2)
C|---------7h9-------------7h9-------------7h9--------------7h9--|
G|---------------------------------------------------------------|
D|------0-------0-------0-------0-------0-------0-------0--------|

[Post-Chorus 2]
D|--------------------------------------------------|
A|--------------------------------------------------|
F|--------------------------------------------------|
C|--------------------------------------------------|
G|-14-14-14-14--14-14-14-14--14-14-14-14--11-11-11--|
D|-12--0--0-12--12--0--0-12--12--0--0-12--13-13-13--|

D|-------------------------------------------------------------|
A|-------------------------------------------------------------|
F|-------------------------------------------------------------|
C|-------------------------------------------12----------------| (x2)
G|-14-14-14-14--14-14-14-14------------12-14----14-12----------|
D|-12--0--0-12--12--0--0-12--0---12-14----------------0-14-12--|

Guitar 1:                            Guitar 2:
D|----------------------|           |----------------------------------|
A|----------------------|           |----------------------------------|
F|----------------------|           |----------------------------------|
C|----------------------|           |----------------/--------------/--|     (x2)
G|-5-4--5-8---8-7--8-11-|           |---------------/--------------/---|
D|-3-2--3-6---6-5--6-9--|           |--------------/--------------/----|
                                                 ^Pick Scr*pes^

D|--------------------------------------------------|
A|--------------------------------------------------|
F|--------------------------------------------------|
C|--------------------------------------------------|
G|-14-14-14-14--14-14-14-14--14-14-14-14--11-11-11--|
D|-12--0--0-12--12--0--0-12--12--0--0-12--13-13-13--|

D|-------------------------------------------------------------|
A|-------------------------------------------------------------|
F|-------------------------------------------------------------|
C|-------------------------------------------12----------------| (x2)
G|-14-14-14-14--14-14-14-14------------12-14----14-12----------|
D|-12--0--0-12--12--0--0-12--0---12-14----------------0-14-12--|

[Outro]
D|-----|
A|-----|
F|-----|
C|-----|
G|-14/-|
D|-12/-|            
Submit corrections

↑ Back to top | Tablatures and chords for acoustic guitar and electric guitar, ukulele, drums are parodies/interpretations of the original songs. You may use it for private study, scholarship, research or language learning purposes only