Home » M » Mary Chapin Carpenter »

Mary Chapin Carpenter - 10000 Miles Tabs

Artists:  A B C D E F G H I J K L M N O P Q R S T U V W X Y Z # 

10000 Miles Tabs

(ver. 1) Click to play this song!
Mary Chapin Carpenter
e|-----------------------------------------------------------------------------|
B|------------------------------------------------0~---------------------------|
G|----------------------2~-----------------------------------------------------|
D|----2~------------------------------------------2~---------------------------|
A|-----------------------------------------------------------------------------|
E|-----------------------------------------------------------------------------|

e|----------------------0-------------------------------------------------------------------------------|
B|-------------------------------------0---------------------------------------0------------------------|
G|------------2--1h2---------1h2----------------2---------1---------2-------------------2--------1------|
D|------------------------------------------2-------2----------2----------2--------2--------2-----------|
A|---0-0------------------------------------------------------------------------------------------------|
E|------------------------------------------------------------------------------------------------------|

e|-------------------------------------------------------------------------------|
B|----------------------0-------------------------------------------0------------|
G|---------2-----------------2-----------1----------------------2-------2--------|
D|---2-----------2-----------------2-----------2---------------------------------|
A|-------------------------------------------------------------------------------|
E|-------------------------------------------------------------------------------|

e|----------------------0-------------------------------------------------------------------------------|
B|-------------------------------------0---------------------------------------0------------------------|
G|------------2--1h2---------1h2----------------2---------1---------2-------------------2--------1------|
D|------------------------------------------2-------2----------2----------2--------2--------2-----------|
A|---0-0------------------------------------------------------------------------------------------------|
E|------------------------------------------------------------------------------------------------------|

e|-------------------------------------------------------------------------------------------|
B|----------------------0-----------2--------------------------------------------------------|
G|----------2----------------------------------2-------------1-------------------------------|
D|----2-----------2----------2-----------2------------2-------------2----------4-------------|
A|-------------------------------------------------------------------------------------------|
E|-------------------------------------------------------------------------------------------|

e|------------------------------------------------------------------------------------|
B|------------------------------------------------------------------------------------|
G|----------------------------4p2---------1h2--------4-----2----1---------------------|
D|----4----4----2----4--------------------------------------------------4-------------|
A|------------------------------------------------------------------------------------|
E|------------------------------------------------------------------------------------|

e|----------------------------------------------------------------------------------------|
B|----------------------------------------------------------------------------------------|
G|----------------------------4p2---------1h2--------4------2----1--------2h4------2------|
D|----4----4----2-----4-------------------------------------------------------------------|
A|----------------------------------------------------------------------------------------|
E|----------------------------------------------------------------------------------------|

Repeat. 


If you're up for more of a challenge, you can try these base notes instead. More accurate, but a bit tricky:


e|----------------------0-------------------------------------------------------------------------------|
B|-------------------------------------0---------------------------------------0------------------------|
G|------------2--1h2---------1h2----------------2---------1---------2-------------------2--------1------|
D|------------------------------------------2-------2----------2----------2--------0--------0-----------|
A|---0-0------------------------------------------------------------------------------------------------|
E|------------------------------------------------------------------------------------------------------|

e|----------------------------------------------------------------------------------|
B|----------------------0----------------------------------------------0------------|
G|---------2--------------------2-----------1----------------------2-------2--------|
D|---0-----------0------------------------------------------------------------------|
A|--------------------------0---------0-----------0---------------------------------|
E|----------------------------------------------------------------------------------|
            
Submit corrections

↑ Back to top | Tablatures and chords for acoustic guitar and electric guitar, ukulele, drums are parodies/interpretations of the original songs. You may use it for private study, scholarship, research or language learning purposes only