Home » M » Marty Robbins »

Marty Robbins - Red River Valley Tabs

Artists:  A B C D E F G H I J K L M N O P Q R S T U V W X Y Z # 

Red River Valley Tabs

(ver. 1) Click to play this song!
Marty Robbins
[Verse 1]
e|------------0---0----0---0-------0--------------|------------0----------0----3----1----0---------|
B|-------1---------------------3--------3----1----|------1----------1--------------------------3---|
G|---0--------------------------------------------|-0----------------------------------------------|
D|------------------------------------------------|------------------------------------------------|
A|------------------------------------------------|------------------------------------------------|
E|------------------------------------------------|------------------------------------------------|
   From this val-ley they say you are leav-ing      We shall miss your bright eyes and sweet smile
 
e|--3---1---0-----0--------------0----3----1------|--------------------------------0---------------|
B|--------------------3---1---3-------------------|------------------0----1----3------3----1-------|
G|------------------------------------------------|--2----2-----0----------------------------------|
D|------------------------------------------------|------------------------------------------------|
A|------------------------------------------------|------------------------------------------------|
E|------------------------------------------------|------------------------------------------------|
   For you take with you all of the sun-shine       That has bright-ened our path-way a while
 
 
[Chorus]
e|------------0---0--0---0------0-----------------|---------0------0----3--1--0--------------------|
B|-------1-------------------3------3----1--------|-----1-------1----------------3-----------------|
G|---0--------------------------------------------|-0----------------------------------------------|
D|------------------------------------------------|------------------------------------------------|
A|------------------------------------------------|------------------------------------------------|
E|------------------------------------------------|------------------------------------------------|
   Then come sit by my side if you love me          Do not hast-en to bid me a-dieu
 
e|--3----1--0---0---------------0---3---1---------|-------------------------------0----------------|
B|------------------3---1---3---------------------|--------------0----1------3--------3---1--------|
G|------------------------------------------------|--2---2---0-------------------------------------|
D|------------------------------------------------|------------------------------------------------|
A|------------------------------------------------|------------------------------------------------|
E|------------------------------------------------|------------------------------------------------|
   Just re-mem-ber the Red Riv-er Val-ley           And the cow-boy that's loved you so true
 
 
[Verse 2]
e|---------0----0----0---0--------0---------------|------------0----------0---3--1---0-------------|
B|-----1---------------------3---------3---1------|------1----------1----------------------3-------|
G|--0---------------------------------------------|-0----------------------------------------------|
D|------------------------------------------------|------------------------------------------------|
A|------------------------------------------------|------------------------------------------------|
E|------------------------------------------------|------------------------------------------------|
   For a long time, my darl-in', I've wait-ed       For the sweet words you nev-er would say
 
e|--3---1---0----0-----------------0----3----1----|------------------------------0-----------------|
B|------------------3---1---3---------------------|----------------0----1----3------3--1-----------|
G|------------------------------------------------|--2----2---0------------------------------------|
D|------------------------------------------------|------------------------------------------------|
A|------------------------------------------------|------------------------------------------------|
E|------------------------------------------------|------------------------------------------------|
   Now at last all my fond hopes have van-ished     For they say that you're go-ing a-way   
 
 
[Chorus]
e|------------0---0--0---0------0-----------------|---------0------0----3--1--0--------------------|
B|-------1-------------------3------3----1--------|-----1-------1----------------3-----------------|
G|---0--------------------------------------------|-0----------------------------------------------|
D|------------------------------------------------|------------------------------------------------|
A|------------------------------------------------|------------------------------------------------|
E|------------------------------------------------|------------------------------------------------|
   Then come sit by my side if you love me          Do not hast-en to bid me a-dieu
 
e|--3----1--0---0---------------0---3---1---------|-------------------------------0----------------|
B|------------------3---1---3---------------------|--------------0----1------3--------3---1--------|
G|------------------------------------------------|--2---2---0-------------------------------------|
D|------------------------------------------------|------------------------------------------------|
A|------------------------------------------------|------------------------------------------------|
E|------------------------------------------------|------------------------------------------------|
   Just re-mem-ber the Red Riv-er Val-ley           And the cow-boy that's loved you so true
            
Submit corrections

↑ Back to top | Tablatures and chords for acoustic guitar and electric guitar, ukulele, drums are parodies/interpretations of the original songs. You may use it for private study, scholarship, research or language learning purposes only